  0
SECTION
  2
HEADER
  9
$ACADVER
  1
AC1015
  9
$ACADMAINTVER
 70
     6
  9
$DWGCODEPAGE
  3
ANSI_1254
  9
$INSBASE
 10
0.0
 20
0.0
 30
0.0
  9
$EXTMIN
 10
0.0
 20
0.0
 30
0.0
  9
$EXTMAX
 10
279.4
 20
215.9
 30
0.0
  9
$LIMMIN
 10
0.0
 20
0.0
  9
$LIMMAX
 10
279.4
 20
215.9
  9
$ORTHOMODE
 70
     0
  9
$REGENMODE
 70
     1
  9
$FILLMODE
 70
     1
  9
$QTEXTMODE
 70
     0
  9
$MIRRTEXT
 70
     1
  9
$LTSCALE
 40
1.0
  9
$ATTMODE
 70
     1
  9
$TEXTSIZE
 40
3.5
  9
$TRACEWID
 40
1.0
  9
$TEXTSTYLE
  7
Standard
  9
$CLAYER
  8
0
  9
$CELTYPE
  6
ByLayer
  9
$CECOLOR
 62
   256
  9
$CELTSCALE
 40
1.0
  9
$DISPSILH
 70
     0
  9
$DIMSCALE
 40
1.0
  9
$DIMASZ
 40
3.5
  9
$DIMEXO
 40
1.0
  9
$DIMDLI
 40
3.75
  9
$DIMRND
 40
0.0
  9
$DIMDLE
 40
0.0
  9
$DIMEXE
 40
1.0
  9
$DIMTP
 40
0.0
  9
$DIMTM
 40
0.0
  9
$DIMTXT
 40
3.5
  9
$DIMCEN
 40
2.5
  9
$DIMTSZ
 40
0.0
  9
$DIMTOL
 70
     0
  9
$DIMLIM
 70
     0
  9
$DIMTIH
 70
     1
  9
$DIMTOH
 70
     1
  9
$DIMSE1
 70
     0
  9
$DIMSE2
 70
     0
  9
$DIMTAD
 70
     1
  9
$DIMZIN
 70
     0
  9
$DIMBLK
  1

  9
$DIMASO
 70
     1
  9
$DIMSHO
 70
     1
  9
$DIMPOST
  1

  9
$DIMAPOST
  1

  9
$DIMALT
 70
     0
  9
$DIMALTD
 70
     3
  9
$DIMALTF
 40
0.0393700787
  9
$DIMLFAC
 40
1.0
  9
$DIMTOFL
 70
     1
  9
$DIMTVP
 40
0.0
  9
$DIMTIX
 70
     0
  9
$DIMSOXD
 70
     0
  9
$DIMSAH
 70
     0
  9
$DIMBLK1
  1

  9
$DIMBLK2
  1

  9
$DIMSTYLE
  2
ISO-25
  9
$DIMCLRD
 70
     0
  9
$DIMCLRE
 70
     0
  9
$DIMCLRT
 70
     0
  9
$DIMTFAC
 40
1.0
  9
$DIMGAP
 40
1.524
  9
$DIMJUST
 70
     0
  9
$DIMSD1
 70
     0
  9
$DIMSD2
 70
     0
  9
$DIMTOLJ
 70
     0
  9
$DIMTZIN
 70
     0
  9
$DIMALTZ
 70
     0
  9
$DIMALTTZ
 70
     0
  9
$DIMUPT
 70
     0
  9
$DIMDEC
 70
     2
  9
$DIMTDEC
 70
     2
  9
$DIMALTU
 70
     2
  9
$DIMALTTD
 70
     3
  9
$DIMTXSTY
  7
Standard
  9
$DIMAUNIT
 70
     0
  9
$DIMADEC
 70
     2
  9
$DIMALTRND
 40
0.0
  9
$DIMAZIN
 70
     0
  9
$DIMDSEP
 70
    44
  9
$DIMATFIT
 70
     3
  9
$DIMFRAC
 70
     0
  9
$DIMLDRBLK
  1

  9
$DIMLUNIT
 70
     2
  9
$DIMLWD
 70
    -2
  9
$DIMLWE
 70
    -2
  9
$DIMTMOVE
 70
     0
  9
$LUNITS
 70
     2
  9
$LUPREC
 70
     2
  9
$SKETCHINC
 40
1.0
  9
$FILLETRAD
 40
10.0
  9
$AUNITS
 70
     0
  9
$AUPREC
 70
     2
  9
$MENU
  1
.
  9
$ELEVATION
 40
0.0
  9
$PELEVATION
 40
0.0
  9
$THICKNESS
 40
0.0
  9
$LIMCHECK
 70
     0
  9
$CHAMFERA
 40
0.0
  9
$CHAMFERB
 40
0.0
  9
$CHAMFERC
 40
0.0
  9
$CHAMFERD
 40
0.0
  9
$SKPOLY
 70
     0
  9
$TDCREATE
 40
2458985.721357408
  9
$TDUCREATE
 40
2458985.596357408
  9
$TDUPDATE
 40
2458985.721357766
  9
$TDUUPDATE
 40
2458985.596357766
  9
$TDINDWG
 40
0.0000000116
  9
$TDUSRTIMER
 40
0.0000000116
  9
$USRTIMER
 70
     1
  9
$ANGBASE
 50
0.0
  9
$ANGDIR
 70
     0
  9
$PDMODE
 70
     0
  9
$PDSIZE
 40
-1.0
  9
$PLINEWID
 40
0.0
  9
$SPLFRAME
 70
     0
  9
$SPLINETYPE
 70
     6
  9
$SPLINESEGS
 70
     8
  9
$HANDSEED
  5
DD
  9
$SURFTAB1
 70
     6
  9
$SURFTAB2
 70
     6
  9
$SURFTYPE
 70
     6
  9
$SURFU
 70
     6
  9
$SURFV
 70
     6
  9
$UCSBASE
  2

  9
$UCSNAME
  2

  9
$UCSORG
 10
0.0
 20
0.0
 30
0.0
  9
$UCSXDIR
 10
1.0
 20
0.0
 30
0.0
  9
$UCSYDIR
 10
0.0
 20
1.0
 30
0.0
  9
$UCSORTHOREF
  2

  9
$UCSORTHOVIEW
 70
     0
  9
$UCSORGTOP
 10
0.0
 20
0.0
 30
0.0
  9
$UCSORGBOTTOM
 10
0.0
 20
0.0
 30
0.0
  9
$UCSORGLEFT
 10
0.0
 20
0.0
 30
0.0
  9
$UCSORGRIGHT
 10
0.0
 20
0.0
 30
0.0
  9
$UCSORGFRONT
 10
0.0
 20
0.0
 30
0.0
  9
$UCSORGBACK
 10
0.0
 20
0.0
 30
0.0
  9
$PUCSBASE
  2

  9
$PUCSNAME
  2

  9
$PUCSORG
 10
0.0
 20
0.0
 30
0.0
  9
$PUCSXDIR
 10
1.0
 20
0.0
 30
0.0
  9
$PUCSYDIR
 10
0.0
 20
1.0
 30
0.0
  9
$PUCSORTHOREF
  2

  9
$PUCSORTHOVIEW
 70
     0
  9
$PUCSORGTOP
 10
0.0
 20
0.0
 30
0.0
  9
$PUCSORGBOTTOM
 10
0.0
 20
0.0
 30
0.0
  9
$PUCSORGLEFT
 10
0.0
 20
0.0
 30
0.0
  9
$PUCSORGRIGHT
 10
0.0
 20
0.0
 30
0.0
  9
$PUCSORGFRONT
 10
0.0
 20
0.0
 30
0.0
  9
$PUCSORGBACK
 10
0.0
 20
0.0
 30
0.0
  9
$USERI1
 70
     0
  9
$USERI2
 70
     0
  9
$USERI3
 70
     0
  9
$USERI4
 70
     0
  9
$USERI5
 70
     0
  9
$USERR1
 40
0.0
  9
$USERR2
 40
0.0
  9
$USERR3
 40
0.0
  9
$USERR4
 40
0.0
  9
$USERR5
 40
0.0
  9
$WORLDVIEW
 70
     1
  9
$SHADEDGE
 70
     3
  9
$SHADEDIF
 70
    70
  9
$TILEMODE
 70
     1
  9
$MAXACTVP
 70
    64
  9
$PINSBASE
 10
0.0
 20
0.0
 30
0.0
  9
$PLIMCHECK
 70
     0
  9
$PEXTMIN
 10
1.0000000000E+20
 20
1.0000000000E+20
 30
1.0000000000E+20
  9
$PEXTMAX
 10
-1.0000000000E+20
 20
-1.0000000000E+20
 30
-1.0000000000E+20
  9
$PLIMMIN
 10
0.0
 20
0.0
  9
$PLIMMAX
 10
420.0
 20
297.0
  9
$UNITMODE
 70
     0
  9
$VISRETAIN
 70
     1
  9
$PLINEGEN
 70
     0
  9
$PSLTSCALE
 70
     1
  9
$TREEDEPTH
 70
  3020
  9
$CMLSTYLE
  2
Standard
  9
$CMLJUST
 70
     0
  9
$CMLSCALE
 40
20.0
  9
$PROXYGRAPHICS
 70
     1
  9
$MEASUREMENT
 70
     1
  9
$CELWEIGHT
370
    -1
  9
$ENDCAPS
280
     0
  9
$JOINSTYLE
280
     0
  9
$LWDISPLAY
290
     1
  9
$INSUNITS
 70
     4
  9
$HYPERLINKBASE
  1

  9
$STYLESHEET
  1

  9
$XEDIT
290
     1
  9
$CEPSNTYPE
380
     0
  9
$PSTYLEMODE
290
     1
  9
$FINGERPRINTGUID
  2
{e6bd647d-8c2b-4e7d-8a31-4526e2930f47}
  9
$VERSIONGUID
  2
{FAEB1C32-E019-11D5-929B-00C0DF256EC4}
  9
$EXTNAMES
290
     1
  9
$PSVPSCALE
 40
0.0
  9
$OLESTARTUP
290
     0
  0
ENDSEC
  0
SECTION
  2
CLASSES
  0
CLASS
  1
ACDBDICTIONARYWDFLT
  2
AcDbDictionaryWithDefault
  3
ObjectDBX Classes
 90
        0
280
     0
281
     0
  0
CLASS
  1
VISUALSTYLE
  2
AcDbVisualStyle
  3
ObjectDBX Classes
 90
     4095
280
     0
281
     0
  0
CLASS
  1
MATERIAL
  2
AcDbMaterial
  3
ObjectDBX Classes
 90
     1153
280
     0
281
     0
  0
CLASS
  1
SCALE
  2
AcDbScale
  3
ObjectDBX Classes
 90
     1153
280
     0
281
     0
  0
CLASS
  1
TABLESTYLE
  2
AcDbTableStyle
  3
ObjectDBX Classes
 90
     4095
280
     0
281
     0
  0
CLASS
  1
MLEADERSTYLE
  2
AcDbMLeaderStyle
  3
ACDB_MLEADERSTYLE_CLASS
 90
     4095
280
     0
281
     0
  0
CLASS
  1
SUN
  2
AcDbSun
  3
SCENEOE
 90
     1153
280
     0
281
     0
  0
CLASS
  1
ACDBPLACEHOLDER
  2
AcDbPlaceHolder
  3
ObjectDBX Classes
 90
        0
280
     0
281
     0
  0
CLASS
  1
LAYOUT
  2
AcDbLayout
  3
ObjectDBX Classes
 90
        0
280
     0
281
     0
  0
ENDSEC
  0
SECTION
  2
TABLES
  0
TABLE
  2
VPORT
  5
8
330
0
100
AcDbSymbolTable
 70
     1
  0
VPORT
  5
29
330
8
100
AcDbSymbolTableRecord
100
AcDbViewportTableRecord
  2
*Active
 70
     0
 10
0.0
 20
0.0
 11
1.0
 21
1.0
 12
139.7
 22
107.95
 13
0.0
 23
0.0
 14
10.0
 24
10.0
 15
10.0
 25
10.0
 16
0.0
 26
0.0
 36
1.0
 17
0.0
 27
0.0
 37
0.0
 40
215.9
 41
1.2941176471
 42
50.0
 43
0.0
 44
0.0
 50
0.0
 51
0.0
 71
     0
 72
  2000
 73
     1
 74
     3
 75
     0
 76
     0
 77
     0
 78
     0
281
     0
 65
     1
110
0.0
120
0.0
130
0.0
111
1.0
121
0.0
131
0.0
112
0.0
122
1.0
132
0.0
 79
     0
146
0.0
  0
ENDTAB
  0
TABLE
  2
LTYPE
  5
5
330
0
100
AcDbSymbolTable
 70
     6
  0
LTYPE
  5
14
330
5
100
AcDbSymbolTableRecord
100
AcDbLinetypeTableRecord
  2
ByBlock
 70
     0
  3

 72
    65
 73
     0
 40
0.0
  0
LTYPE
  5
15
330
5
100
AcDbSymbolTableRecord
100
AcDbLinetypeTableRecord
  2
ByLayer
 70
     0
  3

 72
    65
 73
     0
 40
0.0
  0
LTYPE
  5
16
330
5
100
AcDbSymbolTableRecord
100
AcDbLinetypeTableRecord
  2
Continuous
 70
     0
  3
Solid line
 72
    65
 73
     0
 40
0.0
  0
LTYPE
  5
6E
330
5
100
AcDbSymbolTableRecord
100
AcDbLinetypeTableRecord
  2
HIDDEN
 70
     0
  3
Hidden __ __ __ __ __ __ __ __ __ __ __ __ __ __
 72
    65
 73
     2
 40
1.905
 49
1.27
 74
     0
 49
-0.635
 74
     0
  0
LTYPE
  5
6F
330
5
100
AcDbSymbolTableRecord
100
AcDbLinetypeTableRecord
  2
PHANTOM
 70
     0
  3
Phantom ______  __  __  ______  __  __  ______
 72
    65
 73
     6
 40
12.7
 49
6.35
 74
     0
 49
-1.27
 74
     0
 49
1.27
 74
     0
 49
-1.27
 74
     0
 49
1.27
 74
     0
 49
-1.27
 74
     0
  0
LTYPE
  5
70
330
5
100
AcDbSymbolTableRecord
100
AcDbLinetypeTableRecord
  2
CENTER
 70
     0
  3
Center ____ _ ____ _ ____ _ ____ _ ____ _ ____
 72
    65
 73
     4
 40
10.16
 49
6.35
 74
     0
 49
-1.27
 74
     0
 49
1.27
 74
     0
 49
-1.27
 74
     0
  0
LTYPE
  5
71
330
5
100
AcDbSymbolTableRecord
100
AcDbLinetypeTableRecord
  2
CENTERX2
 70
     0
  3
Center (2x) ________  __  ________  __  _____
 72
    65
 73
     4
 40
20.32
 49
12.7
 74
     0
 49
-2.54
 74
     0
 49
2.54
 74
     0
 49
-2.54
 74
     0
  0
LTYPE
  5
72
330
5
100
AcDbSymbolTableRecord
100
AcDbLinetypeTableRecord
  2
DOT2
 70
     0
  3
Dot (.5x) ........................................
 72
    65
 73
     2
 40
0.635
 49
0.0
 74
     0
 49
-0.635
 74
     0
  0
ENDTAB
  0
TABLE
  2
LAYER
  5
2
330
0
100
AcDbSymbolTable
 70
    17
  0
LAYER
  5
10
330
2
100
AcDbSymbolTableRecord
100
AcDbLayerTableRecord
  2
0
 70
     0
 62
     7
  6
Continuous
370
    -3
390
F
  0
LAYER
  5
73
330
2
100
AcDbSymbolTableRecord
100
AcDbLayerTableRecord
  2
FORMAT
 70
     0
 62
     7
  6
Continuous
370
    -3
390
F
  0
LAYER
  5
74
330
2
100
AcDbSymbolTableRecord
100
AcDbLayerTableRecord
  2
YARDIMCI_GEOMETRI
 70
     0
 62
    -6
  6
Continuous
290
     0
370
    -3
390
F
  0
LAYER
  5
75
330
2
100
AcDbSymbolTableRecord
100
AcDbLayerTableRecord
  2
SAYFA_CERCEVESI
 70
     0
 62
     7
  6
Continuous
370
    25
390
F
  0
LAYER
  5
76
330
2
100
AcDbSymbolTableRecord
100
AcDbLayerTableRecord
  2
ANTET
 70
     0
 62
     7
  6
Continuous
370
    -3
390
F
  0
LAYER
  5
77
330
2
100
AcDbSymbolTableRecord
100
AcDbLayerTableRecord
  2
OLCU
 70
     0
 62
   150
  6
Continuous
370
    -3
390
F
  0
LAYER
  5
78
330
2
100
AcDbSymbolTableRecord
100
AcDbLayerTableRecord
  2
METIN
 70
     0
 62
    96
  6
Continuous
370
    -3
390
F
  0
LAYER
  5
79
330
2
100
AcDbSymbolTableRecord
100
AcDbLayerTableRecord
  2
BALON
 70
     0
 62
     5
  6
Continuous
370
    -3
390
F
  0
LAYER
  5
7A
330
2
100
AcDbSymbolTableRecord
100
AcDbLayerTableRecord
  2
VURGU
 70
     0
 62
     7
  6
Continuous
370
    -3
390
F
  0
LAYER
  5
7B
330
2
100
AcDbSymbolTableRecord
100
AcDbLayerTableRecord
  2
SILIK
 70
     0
 62
     7
  6
Continuous
370
    -3
390
F
  0
LAYER
  5
7C
330
2
100
AcDbSymbolTableRecord
100
AcDbLayerTableRecord
  2
MODEL
 70
     0
 62
     7
  6
Continuous
370
    -3
390
F
  0
LAYER
  5
7D
330
2
100
AcDbSymbolTableRecord
100
AcDbLayerTableRecord
  2
DETAYLANDıRMA
 70
     0
 62
   190
  6
Continuous
370
    -3
390
F
  0
LAYER
  5
7E
330
2
100
AcDbSymbolTableRecord
100
AcDbLayerTableRecord
  2
TOLERANS
 70
     0
 62
   230
  6
Continuous
370
    -3
390
F
  0
LAYER
  5
7F
330
2
100
AcDbSymbolTableRecord
100
AcDbLayerTableRecord
  2
MERKEZ_CIZGILERI
 70
     0
 62
    30
  6
Continuous
370
    -3
390
F
  0
LAYER
  5
80
330
2
100
AcDbSymbolTableRecord
100
AcDbLayerTableRecord
  2
KESIT-DETAY_CIZGILERI
 70
     0
 62
     7
  6
Continuous
370
    -3
390
F
  0
LAYER
  5
81
330
2
100
AcDbSymbolTableRecord
100
AcDbLayerTableRecord
  2
\U+041E\U+0421\U+0415\U+0412\U+042B\U+0415
 70
     0
 62
     7
  6
Continuous
370
    -3
390
F
  0
LAYER
  5
82
330
2
100
AcDbSymbolTableRecord
100
AcDbLayerTableRecord
  2
\U+0412\U+041E\U+0414\U+042F\U+041D\U+042B\U+0415_\U+0417\U+041D\U+0410\U+041A\U+0418
 70
     0
 62
    11
  6
Continuous
370
    -3
390
F
  0
ENDTAB
  0
TABLE
  2
STYLE
  5
3
330
0
100
AcDbSymbolTable
 70
     1
  0
STYLE
  5
11
330
3
100
AcDbSymbolTableRecord
100
AcDbTextStyleTableRecord
  2
Standard
 70
     0
 40
0.0
 41
1.0
 50
0.0
 71
     0
 42
3.5
  3
txt
  4

  0
ENDTAB
  0
TABLE
  2
VIEW
  5
6
330
0
100
AcDbSymbolTable
 70
     0
  0
ENDTAB
  0
TABLE
  2
UCS
  5
7
330
0
100
AcDbSymbolTable
 70
     0
  0
ENDTAB
  0
TABLE
  2
APPID
  5
9
330
0
100
AcDbSymbolTable
 70
     1
  0
APPID
  5
12
330
9
100
AcDbSymbolTableRecord
100
AcDbRegAppTableRecord
  2
ACAD
 70
     0
  0
ENDTAB
  0
TABLE
  2
DIMSTYLE
  5
A
330
0
100
AcDbSymbolTable
 70
     1
100
AcDbDimStyleTable
  0
DIMSTYLE
105
27
330
A
100
AcDbSymbolTableRecord
100
AcDbDimStyleTableRecord
  2
ISO-25
 70
     0
 41
2.5
 42
0.625
 43
3.75
 44
1.25
 73
     0
 74
     0
 77
     1
 78
     8
140
2.5
141
2.5
143
0.0393700787
147
0.625
171
     3
172
     1
178
     0
271
     2
272
     2
274
     3
278
    44
283
     0
284
     8
340
11
  0
ENDTAB
  0
TABLE
  2
BLOCK_RECORD
  5
1
330
0
100
AcDbSymbolTable
 70
     3
  0
BLOCK_RECORD
  5
1F
330
1
100
AcDbSymbolTableRecord
100
AcDbBlockTableRecord
  2
*Model_Space
340
22
  0
BLOCK_RECORD
  5
1B
330
1
100
AcDbSymbolTableRecord
100
AcDbBlockTableRecord
  2
*Paper_Space
340
1E
  0
BLOCK_RECORD
  5
23
330
1
100
AcDbSymbolTableRecord
100
AcDbBlockTableRecord
  2
*Paper_Space0
340
26
  0
BLOCK_RECORD
  5
A5
330
1
100
AcDbSymbolTableRecord
100
AcDbBlockTableRecord
  2
SW_CENTERMARKSYMBOL_0
340
0
102
{BLKREFS
331
B0
102
}
  0
BLOCK_RECORD
  5
C3
330
1
100
AcDbSymbolTableRecord
100
AcDbBlockTableRecord
  2
SW_CENTERMARKSYMBOL_1
340
0
102
{BLKREFS
331
CE
102
}
  0
ENDTAB
  0
ENDSEC
  0
SECTION
  2
BLOCKS
  0
BLOCK
  5
20
330
1F
100
AcDbEntity
  8
0
100
AcDbBlockBegin
  2
*Model_Space
 70
     0
 10
0.0
 20
0.0
 30
0.0
  3
*Model_Space
  1

  0
ENDBLK
  5
21
330
1F
100
AcDbEntity
  8
0
100
AcDbBlockEnd
  0
BLOCK
  5
1C
330
1B
100
AcDbEntity
 67
     1
  8
0
100
AcDbBlockBegin
  2
*Paper_Space
 70
     0
 10
0.0
 20
0.0
 30
0.0
  3
*Paper_Space
  1

  0
ENDBLK
  5
1D
330
1B
100
AcDbEntity
 67
     1
  8
0
100
AcDbBlockEnd
  0
BLOCK
  5
24
330
23
100
AcDbEntity
  8
0
100
AcDbBlockBegin
  2
*Paper_Space0
 70
     0
 10
0.0
 20
0.0
 30
0.0
  3
*Paper_Space0
  1

  0
ENDBLK
  5
25
330
23
100
AcDbEntity
  8
0
100
AcDbBlockEnd
  0
BLOCK
  5
A6
330
A5
100
AcDbEntity
  8
0
100
AcDbBlockBegin
  2
SW_CENTERMARKSYMBOL_0
 70
     0
 10
0.0
 20
0.0
 30
0.0
  3
SW_CENTERMARKSYMBOL_0
  1

  0
LINE
  5
A8
330
A5
100
AcDbEntity
  8
FORMAT
 62
     0
100
AcDbLine
 10
0.0
 20
0.0
 30
0.0
 11
0.0
 21
2.5
 31
0.0
  0
LINE
  5
A9
330
A5
100
AcDbEntity
  8
FORMAT
 62
     0
100
AcDbLine
 10
0.0
 20
0.0
 30
0.0
 11
-2.5
 21
0.0
 31
0.0
  0
LINE
  5
AA
330
A5
100
AcDbEntity
  8
FORMAT
 62
     0
100
AcDbLine
 10
0.0
 20
0.0
 30
0.0
 11
0.0
 21
-2.5
 31
0.0
  0
LINE
  5
AB
330
A5
100
AcDbEntity
  8
FORMAT
 62
     0
100
AcDbLine
 10
0.0
 20
0.0
 30
0.0
 11
2.5
 21
0.0
 31
0.0
  0
LINE
  5
AC
330
A5
100
AcDbEntity
  8
FORMAT
 62
     0
100
AcDbLine
 10
0.0
 20
5.0
 30
0.0
 11
0.0
 21
34.0
 31
0.0
  0
LINE
  5
AD
330
A5
100
AcDbEntity
  8
FORMAT
 62
     0
100
AcDbLine
 10
-5.0
 20
0.0
 30
0.0
 11
-34.0
 21
0.0
 31
0.0
  0
LINE
  5
AE
330
A5
100
AcDbEntity
  8
FORMAT
 62
     0
100
AcDbLine
 10
0.0
 20
-5.0
 30
0.0
 11
0.0
 21
-34.0
 31
0.0
  0
LINE
  5
AF
330
A5
100
AcDbEntity
  8
FORMAT
 62
     0
100
AcDbLine
 10
5.0
 20
0.0
 30
0.0
 11
34.0
 21
0.0
 31
0.0
  0
ENDBLK
  5
A7
330
A5
100
AcDbEntity
  8
0
100
AcDbBlockEnd
  0
BLOCK
  5
C4
330
C3
100
AcDbEntity
  8
0
100
AcDbBlockBegin
  2
SW_CENTERMARKSYMBOL_1
 70
     0
 10
0.0
 20
0.0
 30
0.0
  3
SW_CENTERMARKSYMBOL_1
  1

  0
LINE
  5
C6
330
C3
100
AcDbEntity
  8
FORMAT
 62
     0
100
AcDbLine
 10
0.0
 20
0.0
 30
0.0
 11
0.0
 21
2.5
 31
0.0
  0
LINE
  5
C7
330
C3
100
AcDbEntity
  8
FORMAT
 62
     0
100
AcDbLine
 10
0.0
 20
0.0
 30
0.0
 11
-2.5
 21
0.0
 31
0.0
  0
LINE
  5
C8
330
C3
100
AcDbEntity
  8
FORMAT
 62
     0
100
AcDbLine
 10
0.0
 20
0.0
 30
0.0
 11
0.0
 21
-2.5
 31
0.0
  0
LINE
  5
C9
330
C3
100
AcDbEntity
  8
FORMAT
 62
     0
100
AcDbLine
 10
0.0
 20
0.0
 30
0.0
 11
2.5
 21
0.0
 31
0.0
  0
LINE
  5
CA
330
C3
100
AcDbEntity
  8
FORMAT
 62
     0
100
AcDbLine
 10
0.0
 20
5.0
 30
0.0
 11
0.0
 21
34.0
 31
0.0
  0
LINE
  5
CB
330
C3
100
AcDbEntity
  8
FORMAT
 62
     0
100
AcDbLine
 10
-5.0
 20
0.0
 30
0.0
 11
-34.0
 21
0.0
 31
0.0
  0
LINE
  5
CC
330
C3
100
AcDbEntity
  8
FORMAT
 62
     0
100
AcDbLine
 10
0.0
 20
-5.0
 30
0.0
 11
0.0
 21
-34.0
 31
0.0
  0
LINE
  5
CD
330
C3
100
AcDbEntity
  8
FORMAT
 62
     0
100
AcDbLine
 10
5.0
 20
0.0
 30
0.0
 11
34.0
 21
0.0
 31
0.0
  0
ENDBLK
  5
C5
330
C3
100
AcDbEntity
  8
0
100
AcDbBlockEnd
  0
ENDSEC
  0
SECTION
  2
ENTITIES
  0
LINE
  5
83
330
1F
100
AcDbEntity
  8
0
  6
Continuous
 62
     7
370
    25
100
AcDbLine
 10
84.7098100557
 20
96.7266087073
 30
0.0
 11
84.7098100557
 21
16.7743389148
 31
0.0
  0
LINE
  5
84
330
1F
100
AcDbEntity
  8
0
  6
Continuous
 62
     7
370
    25
100
AcDbLine
 10
147.709811069
 20
16.7743389148
 30
0.0
 11
147.709811069
 21
96.7266087073
 31
0.0
  0
ARC
  5
85
330
1F
100
AcDbEntity
  8
0
  6
Continuous
 62
     7
370
    25
100
AcDbCircle
 10
147.7098105624
 20
96.7266117
 30
0.0
 40
63.0
100
AcDbArc
 50
135.0
 51
180.0
  0
LINE
  5
86
330
1F
100
AcDbEntity
  8
0
  6
Continuous
 62
     7
370
    25
100
AcDbLine
 10
160.9359476342
 20
199.0482036609
 30
0.0
 11
103.1620837375
 21
141.2743379015
 31
0.0
  0
LINE
  5
87
330
1F
100
AcDbEntity
  8
0
  6
Continuous
 62
     7
370
    25
100
AcDbLine
 10
147.709811069
 20
96.7266087073
 30
0.0
 11
205.4836731031
 21
154.5004819173
 31
0.0
  0
LINE
  5
88
330
1F
100
AcDbEntity
  8
0
  6
Continuous
 62
     7
370
    25
100
AcDbLine
 10
116.2098105624
 20
16.7743389148
 30
0.0
 11
147.709811069
 21
16.7743389148
 31
0.0
  0
LINE
  5
89
330
1F
100
AcDbEntity
  8
0
  6
Continuous
 62
     7
370
    25
100
AcDbLine
 10
84.7098100557
 20
16.7743389148
 30
0.0
 11
116.2098105624
 21
16.7743389148
 31
0.0
  0
LWPOLYLINE
  5
8A
330
1F
100
AcDbEntity
  8
0
  6
Continuous
 62
     7
370
    25
100
AcDbPolyline
 90
       24
 70
   128
 43
0.0
 10
183.2098122313
 20
176.7743353385
 10
184.780983217
 20
175.2031569022
 10
186.3443310931
 20
173.6398164767
 10
187.8920625522
 20
172.092077567
 10
189.4164662435
 20
170.5676738757
 10
190.9099500253
 20
169.0741900939
 10
192.3650782182
 20
167.6190768021
 10
193.7745865061
 20
166.2095610637
 10
195.1314638927
 20
164.8526911277
 10
196.4289452507
 20
163.555202319
 10
197.6605783775
 20
162.3235766429
 10
198.8202090933
 20
161.1639384765
 10
199.9020706489
 20
160.0820694703
 10
200.9007762744
 20
159.0833638448
 10
201.8113489821
 20
158.1727985877
 10
202.6292439177
 20
157.3549036521
 10
203.3503930642
 20
156.6337619561
 10
203.9712052419
 20
156.0129497785
 10
204.4885810091
 20
155.4955665606
 10
204.8999499156
 20
155.0841902036
 10
205.2032630517
 20
154.7808919686
 10
205.397000499
 20
154.5871470708
 10
205.4802085831
 20
154.5039389867
 10
205.4836731031
 20
154.5004819173
  0
LWPOLYLINE
  5
8B
330
1F
100
AcDbEntity
  8
0
  6
Continuous
 62
     7
370
    25
100
AcDbPolyline
 90
       24
 70
   128
 43
0.0
 10
160.9359476342
 20
199.0482036609
 10
160.9394158795
 20
199.0447316903
 10
161.0226202383
 20
198.9615236062
 10
161.2163576855
 20
198.7677936095
 10
161.5196670964
 20
198.4644804734
 10
161.9310360029
 20
198.0531190175
 10
162.4484154954
 20
197.5357357997
 10
163.069227673
 20
196.914923622
 10
163.7903768196
 20
196.1937670249
 10
164.6082754805
 20
195.3758720893
 10
165.5188407376
 20
194.4653068322
 10
166.5175463631
 20
193.4666012067
 10
167.599411644
 20
192.3847322005
 10
168.7590460851
 20
191.2251089353
 10
169.9906717613
 20
189.9934832591
 10
171.2881568446
 20
188.6959944505
 10
172.6450342312
 20
187.3391096133
 10
174.0545462444
 20
185.929608776
 10
175.5096669867
 20
184.4744805831
 10
177.0031507685
 20
182.9809968013
 10
178.5275544598
 20
181.45659311
 10
180.0752859189
 20
179.9088691014
 10
181.638633795
 20
178.3455137748
 10
183.2098122313
 20
176.7743353385
  0
LINE
  5
8C
330
1F
100
AcDbEntity
  8
0
  6
Continuous
 62
     1
370
    25
100
AcDbLine
 10
84.7098100557
 20
96.7266087073
 30
0.0
 11
147.709811069
 21
96.7266087073
 31
0.0
  0
LWPOLYLINE
  5
8D
330
1F
100
AcDbEntity
  8
0
  6
Continuous
 62
     1
370
    25
100
AcDbPolyline
 90
       46
 70
   128
 43
0.0
 10
103.1620837375
 20
141.2743379015
 10
103.1759585812
 20
141.2604649204
 10
103.2868567481
 20
141.1495630282
 10
103.5081008076
 20
140.9283180374
 10
103.8385880738
 20
140.5978326339
 10
104.2766719683
 20
140.1597533959
 10
104.8201704024
 20
139.6162484425
 10
105.4663760214
 20
138.9700446862
 10
106.2120683118
 20
138.2243533272
 10
107.0535340904
 20
137.3828847546
 10
107.9865796118
 20
136.4498410958
 10
109.006556645
 20
135.4298640627
 10
110.1083843595
 20
134.3280349511
 10
111.2865730747
 20
133.1498522896
 10
112.5352535955
 20
131.9011722344
 10
113.8482044543
 20
130.5882160205
 10
115.2188848564
 20
129.2175401586
 10
116.6404662572
 20
127.7959544796
 10
118.1058663269
 20
126.3305593866
 10
119.6077842823
 20
124.8286415476
 10
121.1387379653
 20
123.2976813454
 10
122.6911004259
 20
121.7453230757
 10
124.2571370303
 20
120.17928554
 10
125.8290465548
 20
118.6073769468
 10
127.3989984392
 20
117.0374278563
 10
128.959169574
 20
115.4772539276
 10
130.5017880722
 20
113.9346335668
 10
132.0191695913
 20
112.417255773
 10
133.5037536546
 20
110.9326679844
 10
134.9481436982
 20
109.4882760781
 10
136.3451443239
 20
108.091277315
 10
137.6877966895
 20
106.7486230868
 10
138.9694101735
 20
105.4670114654
 10
140.1836014911
 20
104.2528201479
 10
141.3243207707
 20
103.1120990056
 10
142.3858850821
 20
102.0505402821
 10
143.363004513
 20
101.0734189886
 10
144.2508138343
 20
100.1856078047
 10
145.0448874011
 20
99.3915323752
 10
145.7412689551
 20
98.6951489586
 10
146.3364921137
 20
98.0999295253
 10
146.8275896832
 20
97.6088319558
 10
147.2121141478
 20
97.2243074912
 10
147.4881525709
 20
96.9482709307
 10
147.6543265953
 20
96.782093181
 10
147.709811069
 20
96.7266087073
  0
LINE
  5
8E
330
1F
100
AcDbEntity
  8
0
  6
Continuous
 62
     7
370
    25
100
AcDbLine
 10
-40.5117775126
 20
176.7743353385
 30
0.0
 11
-40.5117775126
 21
119.0004770297
 31
0.0
  0
LINE
  5
8F
330
1F
100
AcDbEntity
  8
0
  6
Continuous
 62
     7
370
    25
100
AcDbLine
 10
22.4882235007
 20
119.0004770297
 30
0.0
 11
22.4882235007
 21
176.7743353385
 31
0.0
  0
LINE
  5
90
330
1F
100
AcDbEntity
  8
0
  6
Continuous
 62
     7
370
    25
100
AcDbLine
 10
-40.5117775126
 20
119.0004770297
 30
0.0
 11
-40.5117775126
 21
96.7266087073
 31
0.0
  0
LINE
  5
91
330
1F
100
AcDbEntity
  8
0
  6
Continuous
 62
     7
370
    25
100
AcDbLine
 10
22.4882235007
 20
96.7266087073
 30
0.0
 11
22.4882235007
 21
119.0004770297
 31
0.0
  0
LINE
  5
92
330
1F
100
AcDbEntity
  8
0
  6
Continuous
 62
     7
370
    25
100
AcDbLine
 10
-40.5117775126
 20
96.7266087073
 30
0.0
 11
-40.5117775126
 21
16.7743389148
 31
0.0
  0
LINE
  5
93
330
1F
100
AcDbEntity
  8
0
  6
Continuous
 62
     7
370
    25
100
AcDbLine
 10
22.4882235007
 20
16.7743389148
 30
0.0
 11
22.4882235007
 21
96.7266087073
 31
0.0
  0
LWPOLYLINE
  5
94
330
1F
100
AcDbEntity
  8
0
  6
Continuous
 62
     7
370
    25
100
AcDbPolyline
 90
       90
 70
   128
 43
0.0
 10
-40.5117775126
 20
176.7743353385
 10
-40.433311723
 20
175.2031569022
 10
-40.1983055098
 20
173.6398164767
 10
-39.8079286142
 20
172.092077567
 10
-39.2641275002
 20
170.5676738757
 10
-38.5696123166
 20
169.0741900939
 10
-37.7278401329
 20
167.6190768021
 10
-36.7430056258
 20
166.2095610637
 10
-35.6200150026
 20
164.8526911277
 10
-34.3644655122
 20
163.555202319
 10
-32.9826081915
 20
162.3235766429
 10
-31.4813311024
 20
161.1639384765
 10
-29.8681109025
 20
160.0820694703
 10
-28.1509849055
 20
159.0833638448
 10
-26.3385101034
 20
158.1727985877
 10
-24.4397128745
 20
157.3549036521
 10
-22.4640545248
 20
156.6337619561
 10
-20.4213782026
 20
156.0129497785
 10
-18.3218595384
 20
155.4955665606
 10
-16.1759586817
 20
155.0841902036
 10
-13.9943662843
 20
154.7808919686
 10
-11.787950415
 20
154.5871470708
 10
-9.5677041727
 20
154.5039389867
 10
-7.344688177
 20
154.5316849488
 10
-5.129977716
 20
154.6702508468
 10
-2.9346061683
 20
154.9189214248
 10
-0.7695107533
 20
155.2764896888
 10
1.3545221837
 20
155.7411525983
 10
3.4269114213
 20
156.3106004733
 10
5.4373304547
 20
156.9820020932
 10
7.3757657038
 20
157.7520046967
 10
9.2325584219
 20
158.6167786855
 10
10.9984596448
 20
159.5720027226
 10
12.6646702365
 20
160.612938239
 10
14.2228902505
 20
161.7343847293
 10
15.6653561817
 20
162.9307691592
 10
16.9848800824
 20
164.196101262
 10
18.1748924033
 20
165.5241225499
 10
19.2294606195
 20
166.9081722039
 10
20.1433339344
 20
168.3413807887
 10
20.9119563179
 20
169.816610648
 10
21.5315018968
 20
171.3264857072
 10
21.998880543
 20
172.863510682
 10
22.3117676751
 20
174.4200263757
 10
22.4685986714
 20
175.988254382
 10
22.4685986714
 20
177.5604162949
 10
22.3117676751
 20
179.1286592025
 10
21.998880543
 20
180.685159995
 10
21.5315018968
 20
182.2221849698
 10
20.9119563179
 20
183.7320749301
 10
20.1433339344
 20
185.2072898883
 10
19.2294606195
 20
186.6404984731
 10
18.1748924033
 20
188.0245630282
 10
16.9848800824
 20
189.352569415
 10
15.6653561817
 20
190.6179164189
 10
14.2228902505
 20
191.8142859477
 10
12.6646702365
 20
192.935732438
 10
10.9984596448
 20
193.9766679543
 10
9.2325584219
 20
194.9319068927
 10
7.3757657038
 20
195.7966808814
 10
5.4373304547
 20
196.5666834849
 10
3.4269114213
 20
197.2380702037
 10
1.3545221837
 20
197.8075180787
 10
-0.7695107533
 20
198.2721809882
 10
-2.9346061683
 20
198.6297492522
 10
-5.129977716
 20
198.8784347314
 10
-7.344688177
 20
199.0169857282
 10
-9.5677041727
 20
199.0447316903
 10
-11.787950415
 20
198.9615236062
 10
-13.9943662843
 20
198.7677936095
 10
-16.1759586817
 20
198.4644804734
 10
-18.3218595384
 20
198.0531190175
 10
-20.4213782026
 20
197.5357357997
 10
-22.4640545248
 20
196.914923622
 10
-24.4397128745
 20
196.1937670249
 10
-26.3385101034
 20
195.3758720893
 10
-28.1509849055
 20
194.4653068322
 10
-29.8681109025
 20
193.4666012067
 10
-31.4813311024
 20
192.3847322005
 10
-32.9826081915
 20
191.2251089353
 10
-34.3644655122
 20
189.9934832591
 10
-35.6200150026
 20
188.6959944505
 10
-36.7430056258
 20
187.3391096133
 10
-37.7278401329
 20
185.929608776
 10
-38.5696123166
 20
184.4744805831
 10
-39.2641275002
 20
182.9809968013
 10
-39.8079286142
 20
181.45659311
 10
-40.1983055098
 20
179.9088691014
 10
-40.433311723
 20
178.3455137748
 10
-40.5117775126
 20
176.7743353385
  0
LWPOLYLINE
  5
95
330
1F
100
AcDbEntity
  8
0
  6
Continuous
 62
     7
370
    25
100
AcDbPolyline
 90
       84
 70
   128
 43
0.0
 10
-36.7117765172
 20
176.7743353385
 10
-36.6324445976
 20
178.2556746739
 10
-36.3949051871
 20
179.7285203475
 10
-36.0005161537
 20
181.1844383019
 10
-35.4515387489
 20
182.6150987882
 10
-34.7511171176
 20
184.0123061675
 10
-33.9032633974
 20
185.3680585164
 10
-32.9128316416
 20
186.6745774287
 10
-31.7854991926
 20
187.9243974227
 10
-30.5277182533
 20
189.1103510398
 10
-29.1466972603
 20
190.2256433505
 10
-27.650345005
 20
191.2638817567
 10
-26.0472333802
 20
192.2191355962
 10
-24.3465442954
 20
193.0859063405
 10
-22.5580184533
 20
193.8592617053
 10
-20.6919013335
 20
194.5347611445
 10
-18.7588807939
 20
195.1085154551
 10
-16.7700307256
 20
195.5772612828
 10
-14.7367412037
 20
195.9383015174
 10
-12.6706600467
 20
196.1895648974
 10
-10.583621105
 20
196.3296358127
 10
-8.4875786606
 20
196.3576946992
 10
-6.3945389165
 20
196.2735776442
 10
-4.3164904973
 20
196.077761485
 10
-2.2653358801
 20
195.7713787097
 10
-0.2528250961
 20
195.3561876553
 10
1.7095162721
 20
194.8345725078
 10
3.6104462297
 20
194.209498598
 10
5.4390776159
 20
193.4845571059
 10
7.1849358456
 20
192.6639054555
 10
8.838020377
 20
191.7522375125
 10
10.3888643162
 20
190.7547686833
 10
11.8285809831
 20
189.6772359151
 10
13.1489263104
 20
188.5257933873
 10
14.3423379587
 20
187.3070274133
 10
15.4019800202
 20
186.0279415387
 10
16.3217821346
 20
184.6958522338
 10
17.0964748786
 20
183.318388893
 10
17.7216214315
 20
181.9034342307
 10
18.193643652
 20
180.4591093797
 10
18.5098332541
 20
178.9936844844
 10
18.6683834718
 20
177.5155339974
 10
18.6683834718
 20
176.0331366795
 10
18.5098332541
 20
174.5550010938
 10
18.193643652
 20
173.0895612973
 10
17.7216214315
 20
171.6452364463
 10
17.0964748786
 20
170.230281784
 10
16.3217821346
 20
168.8528184432
 10
15.4019800202
 20
167.5207291383
 10
14.3423379587
 20
166.2416432637
 10
13.1489263104
 20
165.0228921908
 10
11.8285809831
 20
163.8714496631
 10
10.3888643162
 20
162.7939019936
 10
8.838020377
 20
161.7964480657
 10
7.1849358456
 20
160.8847801227
 10
5.4390776159
 20
160.0641135711
 10
3.6104462297
 20
159.3391869801
 10
1.7095162721
 20
158.7141130704
 10
-0.2528250961
 20
158.1924830216
 10
-2.2653358801
 20
157.7772919673
 10
-4.3164904973
 20
157.470909192
 10
-6.3945389165
 20
157.2751079339
 10
-8.4875786606
 20
157.190990879
 10
-10.583621105
 20
157.2190348643
 10
-12.6706600467
 20
157.3591057795
 10
-14.7367412037
 20
157.6103840608
 10
-16.7700307256
 20
157.9714242953
 10
-18.7588807939
 20
158.440170123
 10
-20.6919013335
 20
159.0139244336
 10
-22.5580184533
 20
159.6894089717
 10
-24.3465442954
 20
160.4627643365
 10
-26.0472333802
 20
161.329549982
 10
-27.650345005
 20
162.2847889203
 10
-29.1466972603
 20
163.3230422276
 10
-30.5277182533
 20
164.4383345384
 10
-31.7854991926
 20
165.6242732543
 10
-32.9128316416
 20
166.8740932483
 10
-33.9032633974
 20
168.1806270617
 10
-34.7511171176
 20
169.5363645095
 10
-35.4515387489
 20
170.9335718888
 10
-36.0005161537
 20
172.3642472762
 10
-36.3949051871
 20
173.8201652306
 10
-36.6324445976
 20
175.2930109042
 10
-36.7117765172
 20
176.7743353385
  0
LINE
  5
96
330
1F
100
AcDbEntity
  8
0
  6
Continuous
 62
     7
370
    25
100
AcDbLine
 10
-40.5117775126
 20
16.7743389148
 30
0.0
 11
22.4882235007
 21
16.7743389148
 31
0.0
  0
LWPOLYLINE
  5
97
330
1F
100
AcDbEntity
  8
0
  6
Continuous
 62
     1
370
    25
100
AcDbPolyline
 90
       24
 70
   128
 43
0.0
 10
-9.011777006
 20
96.7266087073
 10
-6.7897999006
 20
96.782093181
 10
-4.5788924953
 20
96.9482709307
 10
-2.3900693095
 20
97.2243074912
 10
-0.2342349662
 20
97.6088319558
 10
1.8778695913
 20
98.0999295253
 10
3.9357227461
 20
98.6951489586
 10
5.9290715681
 20
99.3915323752
 10
7.8479872273
 20
100.1856078047
 10
9.6829069035
 20
101.0734189886
 10
11.4246905969
 20
102.0505402821
 10
13.0646621065
 20
103.1120990056
 10
14.5946481453
 20
104.2528201479
 10
16.0070304946
 20
105.4670114654
 10
17.2947683559
 20
106.7486230868
 10
18.4514486419
 20
108.091277315
 10
19.471310191
 20
109.4882760781
 10
20.3492679821
 20
110.9326679844
 10
21.0809522496
 20
112.417255773
 10
21.6627159344
 20
113.9346335668
 10
22.0916607605
 20
115.4772539276
 10
22.365650274
 20
117.0374278563
 10
22.4833172934
 20
118.6073769468
 10
22.4882235007
 20
119.0004770297
  0
LWPOLYLINE
  5
98
330
1F
100
AcDbEntity
  8
0
  6
Continuous
 62
     1
370
    25
100
AcDbPolyline
 90
       24
 70
   128
 43
0.0
 10
-40.5117775126
 20
119.0004770297
 10
-40.5068713053
 20
118.6073769468
 10
-40.3892042859
 20
117.0374278563
 10
-40.1152147724
 20
115.4772539276
 10
-39.6862699463
 20
113.9346335668
 10
-39.1045062615
 20
112.417255773
 10
-38.372821994
 20
110.9326679844
 10
-37.4948642029
 20
109.4882760781
 10
-36.4750026538
 20
108.091277315
 10
-35.3183223678
 20
106.7486230868
 10
-34.0305845066
 20
105.4670114654
 10
-32.6182021572
 20
104.2528201479
 10
-31.0882161184
 20
103.1120990056
 10
-29.4482446088
 20
102.0505402821
 10
-27.7064609154
 20
101.0734189886
 10
-25.8715412392
 20
100.1856078047
 10
-23.95262558
 20
99.3915323752
 10
-21.959276758
 20
98.6951489586
 10
-19.9014236032
 20
98.0999295253
 10
-17.7893190457
 20
97.6088319558
 10
-15.6334847024
 20
97.2243074912
 10
-13.4446615166
 20
96.9482709307
 10
-11.2337541113
 20
96.782093181
 10
-9.011777006
 20
96.7266087073
  0
LINE
  5
99
330
1F
100
AcDbEntity
  8
0
  6
Continuous
 62
     1
370
    25
100
AcDbLine
 10
-9.011777006
 20
96.7266087073
 30
0.0
 11
22.4882235007
 21
96.7266087073
 31
0.0
  0
LINE
  5
9A
330
1F
100
AcDbEntity
  8
0
  6
Continuous
 62
     1
370
    25
100
AcDbLine
 10
-40.5117775126
 20
96.7266087073
 30
0.0
 11
-9.011777006
 21
96.7266087073
 31
0.0
  0
LINE
  5
9B
330
1F
100
AcDbEntity
  8
0
  6
Continuous
 62
     7
370
    25
100
AcDbLine
 10
183.2098122313
 20
316.0029189198
 30
0.0
 11
125.4359474032
 21
316.0029189198
 31
0.0
  0
LINE
  5
9C
330
1F
100
AcDbEntity
  8
0
  6
Continuous
 62
     7
370
    25
100
AcDbLine
 10
125.4359474032
 20
253.0029179065
 30
0.0
 11
183.2098122313
 21
253.0029179065
 31
0.0
  0
LINE
  5
9D
330
1F
100
AcDbEntity
  8
0
  6
Continuous
 62
     7
370
    25
100
AcDbLine
 10
125.4359474032
 20
316.0029189198
 30
0.0
 11
116.2098105624
 21
316.0029189198
 31
0.0
  0
LINE
  5
9E
330
1F
100
AcDbEntity
  8
0
  6
Continuous
 62
     7
370
    25
100
AcDbLine
 10
116.2098105624
 20
253.0029179065
 30
0.0
 11
125.4359474032
 21
253.0029179065
 31
0.0
  0
CIRCLE
  5
9F
330
1F
100
AcDbEntity
  8
0
  6
Continuous
 62
     7
370
    25
100
AcDbCircle
 10
116.2098105624
 20
284.5029184132
 30
0.0
 40
27.69999999999999
  0
CIRCLE
  5
A0
330
1F
100
AcDbEntity
  8
0
  6
Continuous
 62
     7
370
    25
100
AcDbCircle
 10
116.2098105624
 20
284.5029184132
 30
0.0
 40
31.5
  0
LWPOLYLINE
  5
A1
330
1F
100
AcDbEntity
  8
0
  6
Continuous
 62
     7
370
    25
100
AcDbPolyline
 90
       46
 70
   128
 43
0.0
 10
183.2098122313
 20
316.0029189198
 10
184.780983217
 20
315.9244531303
 10
186.3443310931
 20
315.6894469171
 10
187.8920625522
 20
315.2990700214
 10
189.4164662435
 20
314.7552689074
 10
190.9099500253
 20
314.0607537239
 10
192.3650782182
 20
313.2189815401
 10
193.7745865061
 20
312.234147033
 10
195.1314638927
 20
311.1111564099
 10
196.4289452507
 20
309.8556069194
 10
197.6605783775
 20
308.4737495988
 10
198.8202090933
 20
306.9724725096
 10
199.9020706489
 20
305.3592523097
 10
200.9007762744
 20
303.6421263127
 10
201.8113489821
 20
301.8296515106
 10
202.6292439177
 20
299.9308542817
 10
203.3503930642
 20
297.955195932
 10
203.9712052419
 20
295.9125196098
 10
204.4885810091
 20
293.8130009456
 10
204.8999499156
 20
291.6671000889
 10
205.2032630517
 20
289.4855076915
 10
205.397000499
 20
287.2790918222
 10
205.4802085831
 20
285.0588455799
 10
205.452462621
 20
282.8358295842
 10
205.3139041736
 20
280.6211191232
 10
205.0652186944
 20
278.4257475755
 10
204.707657881
 20
276.2606521605
 10
204.2429949715
 20
274.1366192235
 10
203.6735470965
 20
272.064229986
 10
203.0021454766
 20
270.0538109525
 10
202.232142873
 20
268.1153757035
 10
201.3673763349
 20
266.2585829853
 10
200.4121448471
 20
264.4926817625
 10
199.3712093308
 20
262.8264711707
 10
198.2497628405
 20
261.2682511567
 10
197.0533858611
 20
259.8257852255
 10
195.7880388572
 20
258.5062613248
 10
194.4600324704
 20
257.3162490039
 10
193.0759753659
 20
256.2616807877
 10
191.6427667811
 20
255.3478074728
 10
190.1675443723
 20
254.5791850894
 10
188.6576618626
 20
253.9596395104
 10
187.1206368878
 20
253.4922608643
 10
185.5641286447
 20
253.1793737321
 10
183.9958857372
 20
253.0225427358
 10
183.2098122313
 20
253.0029179065
  0
LWPOLYLINE
  5
A2
330
1F
100
AcDbEntity
  8
0
  6
Continuous
 62
     1
370
    25
100
AcDbPolyline
 90
       24
 70
   128
 43
0.0
 10
147.709811069
 20
284.5029184132
 10
147.6543265953
 20
282.2809413078
 10
147.4881525709
 20
280.0700339026
 10
147.2121141478
 20
277.8812107167
 10
146.8275896832
 20
275.7253763734
 10
146.3364921137
 20
273.613271816
 10
145.7412689551
 20
271.5554186611
 10
145.0448874011
 20
269.5620698391
 10
144.2508138343
 20
267.6431541799
 10
143.363004513
 20
265.8082345038
 10
142.3858850821
 20
264.0664508103
 10
141.3243207707
 20
262.4264793007
 10
140.1836014911
 20
260.8964932619
 10
138.9694101735
 20
259.4841109126
 10
137.6877966895
 20
258.1963730513
 10
136.3451443239
 20
257.0396927654
 10
134.9481436982
 20
256.0198312162
 10
133.5037536546
 20
255.1418734251
 10
132.0191695913
 20
254.4101891576
 10
130.5017880722
 20
253.8284254729
 10
128.959169574
 20
253.3994806467
 10
127.3989984392
 20
253.1254911332
 10
125.8290465548
 20
253.0078241139
 10
125.4359474032
 20
253.0029179065
  0
LWPOLYLINE
  5
A3
330
1F
100
AcDbEntity
  8
0
  6
Continuous
 62
     1
370
    25
100
AcDbPolyline
 90
       24
 70
   128
 43
0.0
 10
125.4359474032
 20
316.0029189198
 10
125.8290465548
 20
315.9980127125
 10
127.3989984392
 20
315.8803456931
 10
128.959169574
 20
315.6063561796
 10
130.5017880722
 20
315.1774113535
 10
132.0191695913
 20
314.5956476687
 10
133.5037536546
 20
313.8639634012
 10
134.9481436982
 20
312.9860056101
 10
136.3451443239
 20
311.966144061
 10
137.6877966895
 20
310.809463775
 10
138.9694101735
 20
309.5217259138
 10
140.1836014911
 20
308.1093435644
 10
141.3243207707
 20
306.5793575256
 10
142.3858850821
 20
304.939386016
 10
143.363004513
 20
303.1976023226
 10
144.2508138343
 20
301.3626826464
 10
145.0448874011
 20
299.4437669872
 10
145.7412689551
 20
297.4504181652
 10
146.3364921137
 20
295.3925650104
 10
146.8275896832
 20
293.2804604529
 10
147.2121141478
 20
291.1246261096
 10
147.4881525709
 20
288.9358029238
 10
147.6543265953
 20
286.7248955185
 10
147.709811069
 20
284.5029184132
  0
LWPOLYLINE
  5
A4
330
1F
100
AcDbEntity
  8
0
  6
Continuous
 62
     1
370
    25
100
AcDbPolyline
 90
       38
 70
   128
 43
0.0
 10
121.6143560222
 20
311.6705627649
 10
121.0258495621
 20
311.491657561
 10
119.5951867475
 20
310.9426801561
 10
118.197979601
 20
310.2422585248
 10
116.84223057
 20
309.3944048046
 10
115.5357057205
 20
308.4039730488
 10
114.2858884622
 20
307.2766405999
 10
113.0999377555
 20
306.0188596605
 10
111.9846468418
 20
304.6378386675
 10
110.9464033133
 20
303.1414864122
 10
109.9911545961
 20
301.5383747875
 10
109.1243726759
 20
299.8376857026
 10
108.3510219677
 20
298.0491598605
 10
107.6755318417
 20
296.1830427407
 10
107.1017719432
 20
294.2500222011
 10
106.6330279782
 20
292.2611721328
 10
106.271985881
 20
290.2278826109
 10
106.0207131877
 20
288.1618014539
 10
105.880649723
 20
286.0747625123
 10
105.8525964244
 20
283.9787200678
 10
105.936715342
 20
281.8856803237
 10
106.1325240507
 20
279.8076319045
 10
106.4389003067
 20
277.7564772873
 10
106.8540904298
 20
275.7439665033
 10
107.3757158219
 20
273.7816251351
 10
108.0007888003
 20
271.8806951775
 10
108.7257284298
 20
270.0520637913
 10
109.5463828742
 20
268.3062055616
 10
110.4580512828
 20
266.6531210302
 10
111.4555117301
 20
265.102277091
 10
112.5330505519
 20
263.6625604241
 10
113.6844961065
 20
262.3422150968
 10
114.9032531166
 20
261.1488034486
 10
116.1823402899
 20
260.089161387
 10
117.5144313228
 20
259.1693592726
 10
118.8918959442
 20
258.3946665286
 10
120.3068443201
 20
257.7695199757
 10
121.6143560222
 20
257.3352740615
  0
INSERT
  5
B0
330
1F
100
AcDbEntity
  8
FORMAT
 62
     7
100
AcDbBlockReference
  2
SW_CENTERMARKSYMBOL_0
 10
116.2098105624
 20
284.5029184132
 30
0.0
  0
LINE
  5
B1
330
1F
100
AcDbEntity
  8
0
  6
Continuous
 62
     7
370
    25
100
AcDbLine
 10
257.7195115992
 20
96.7266087073
 30
0.0
 11
257.7195115992
 21
16.7743389148
 31
0.0
  0
LINE
  5
B2
330
1F
100
AcDbEntity
  8
0
  6
Continuous
 62
     7
370
    25
100
AcDbLine
 10
320.7195126125
 20
16.7743389148
 30
0.0
 11
320.7195126125
 21
96.7266087073
 31
0.0
  0
LINE
  5
B3
330
1F
100
AcDbEntity
  8
0
  6
Continuous
 62
     7
370
    25
100
AcDbLine
 10
320.7195126125
 20
96.7266087073
 30
0.0
 11
320.7195126125
 21
119.0004770297
 31
0.0
  0
LINE
  5
B4
330
1F
100
AcDbEntity
  8
0
  6
Continuous
 62
     7
370
    25
100
AcDbLine
 10
257.7195115992
 20
119.0004770297
 30
0.0
 11
257.7195115992
 21
96.7266087073
 31
0.0
  0
LINE
  5
B5
330
1F
100
AcDbEntity
  8
0
  6
Continuous
 62
     7
370
    25
100
AcDbLine
 10
257.7195115992
 20
176.7743353385
 30
0.0
 11
257.7195115992
 21
119.0004770297
 31
0.0
  0
LINE
  5
B6
330
1F
100
AcDbEntity
  8
0
  6
Continuous
 62
     7
370
    25
100
AcDbLine
 10
320.7195126125
 20
119.0004770297
 30
0.0
 11
320.7195126125
 21
176.7743353385
 31
0.0
  0
LINE
  5
B7
330
1F
100
AcDbEntity
  8
0
  6
Continuous
 62
     7
370
    25
100
AcDbLine
 10
257.7195115992
 20
16.7743389148
 30
0.0
 11
320.7195126125
 21
16.7743389148
 31
0.0
  0
LWPOLYLINE
  5
B8
330
1F
100
AcDbEntity
  8
0
  6
Continuous
 62
     7
370
    25
100
AcDbPolyline
 90
       46
 70
   128
 43
0.0
 10
257.7195115992
 20
176.7743353385
 10
257.7391364285
 20
177.5604162949
 10
257.8959674247
 20
179.1286592025
 10
258.2088545569
 20
180.685159995
 10
258.676233203
 20
182.2221849698
 10
259.295778782
 20
183.7320749301
 10
260.0644011655
 20
185.2072898883
 10
260.9782744803
 20
186.6404984731
 10
262.0328426965
 20
188.0245630282
 10
263.2228550174
 20
189.352569415
 10
264.5423789182
 20
190.6179164189
 10
265.9848448493
 20
191.8142859477
 10
267.5430648633
 20
192.935732438
 10
269.2092754551
 20
193.9766679543
 10
270.9751766779
 20
194.9319068927
 10
272.8319693961
 20
195.7966808814
 10
274.7704046451
 20
196.5666834849
 10
276.7808236786
 20
197.2380702037
 10
278.8532129162
 20
197.8075180787
 10
280.9772458532
 20
198.2721809882
 10
283.1423412681
 20
198.6297492522
 10
285.3377128159
 20
198.8784347314
 10
287.5524232768
 20
199.0169857282
 10
289.7754392725
 20
199.0447316903
 10
291.9956855149
 20
198.9615236062
 10
294.2021013842
 20
198.7677936095
 10
296.3836937816
 20
198.4644804734
 10
298.5295946383
 20
198.0531190175
 10
300.6291133025
 20
197.5357357997
 10
302.6717896246
 20
196.914923622
 10
304.6474479743
 20
196.1937670249
 10
306.5462452032
 20
195.3758720893
 10
308.3587200054
 20
194.4653068322
 10
310.0758460023
 20
193.4666012067
 10
311.6890662023
 20
192.3847322005
 10
313.1903432914
 20
191.2251089353
 10
314.5722006121
 20
189.9934832591
 10
315.8277501025
 20
188.6959944505
 10
316.9507407256
 20
187.3391096133
 10
317.9355752327
 20
185.929608776
 10
318.7773474165
 20
184.4744805831
 10
319.4718626001
 20
182.9809968013
 10
320.015663714
 20
181.45659311
 10
320.4060406097
 20
179.9088691014
 10
320.6410468229
 20
178.3455137748
 10
320.7195126125
 20
176.7743353385
  0
LINE
  5
B9
330
1F
100
AcDbEntity
  8
0
  6
Continuous
 62
     1
370
    25
100
AcDbLine
 10
257.7195115992
 20
96.7266087073
 30
0.0
 11
320.7195126125
 21
96.7266087073
 31
0.0
  0
LWPOLYLINE
  5
BA
330
1F
100
AcDbEntity
  8
0
  6
Continuous
 62
     1
370
    25
100
AcDbPolyline
 90
       46
 70
   128
 43
0.0
 10
257.7195115992
 20
119.0004770297
 10
257.7636562892
 20
120.17928554
 10
257.9596065589
 20
121.7453230757
 10
258.3112925895
 20
123.2976813454
 10
258.816961632
 20
124.8286415476
 10
259.4740953901
 20
126.3305593866
 10
260.2794174709
 20
127.7959544796
 10
261.2289194622
 20
129.2175401586
 10
262.3178683826
 20
130.5882160205
 10
263.5408402094
 20
131.9011722344
 10
264.8917403676
 20
133.1498522896
 10
266.3638428458
 20
134.3280349511
 10
267.9498088219
 20
135.4298640627
 10
269.6417406806
 20
136.4498410958
 10
271.4312080898
 20
137.3828847546
 10
273.3092945673
 20
138.2243533272
 10
275.2666459092
 20
138.9700446862
 10
277.2935102367
 20
139.6162484425
 10
279.3797882878
 20
140.1597533959
 10
281.5150878996
 20
140.5978326339
 10
283.6887705744
 20
140.9283180374
 10
285.890007126
 20
141.1495630282
 10
288.1078309984
 20
141.2604649204
 10
290.3311932132
 20
141.2604649204
 10
292.5490170856
 20
141.1495630282
 10
294.7502536372
 20
140.9283180374
 10
296.923936312
 20
140.5978326339
 10
299.0592359238
 20
140.1597533959
 10
301.145513975
 20
139.6162484425
 10
303.1723783024
 20
138.9700446862
 10
305.1297296443
 20
138.2243533272
 10
307.0078161218
 20
137.3828847546
 10
308.7972835311
 20
136.4498410958
 10
310.4892153897
 20
135.4298640627
 10
312.0751813658
 20
134.3280349511
 10
313.547283844
 20
133.1498522896
 10
314.8981840023
 20
131.9011722344
 10
316.1211558291
 20
130.5882160205
 10
317.2101047494
 20
129.2175401586
 10
318.1596067407
 20
127.7959544796
 10
318.9649288216
 20
126.3305593866
 10
319.6220625796
 20
124.8286415476
 10
320.1277316221
 20
123.2976813454
 10
320.4794176527
 20
121.7453230757
 10
320.6753679224
 20
120.17928554
 10
320.7195126125
 20
119.0004770297
  0
LINE
  5
BB
330
1F
100
AcDbEntity
  8
0
  6
Continuous
 62
     7
370
    25
100
AcDbLine
 10
183.2098122313
 20
-48.5293658412
 30
0.0
 11
125.4359474032
 21
-48.5293658412
 31
0.0
  0
LINE
  5
BC
330
1F
100
AcDbEntity
  8
0
  6
Continuous
 62
     7
370
    25
100
AcDbLine
 10
125.4359474032
 20
-111.5293668544
 30
0.0
 11
183.2098122313
 21
-111.5293668544
 31
0.0
  0
LINE
  5
BD
330
1F
100
AcDbEntity
  8
0
  6
Continuous
 62
     7
370
    25
100
AcDbLine
 10
116.2098105624
 20
-111.5293668544
 30
0.0
 11
125.4359474032
 21
-111.5293668544
 31
0.0
  0
LINE
  5
BE
330
1F
100
AcDbEntity
  8
0
  6
Continuous
 62
     7
370
    25
100
AcDbLine
 10
125.4359474032
 20
-48.5293658412
 30
0.0
 11
116.2098105624
 21
-48.5293658412
 31
0.0
  0
LWPOLYLINE
  5
BF
330
1F
100
AcDbEntity
  8
0
  6
Continuous
 62
     7
370
    25
100
AcDbPolyline
 90
       90
 70
   128
 43
0.0
 10
183.2098122313
 20
-111.5293668544
 10
184.780983217
 20
-111.4509010649
 10
186.3443310931
 20
-111.2158948517
 10
187.8920625522
 20
-110.825517956
 10
189.4164662435
 20
-110.2817168421
 10
190.9099500253
 20
-109.5872016585
 10
192.3650782182
 20
-108.7454294747
 10
193.7745865061
 20
-107.7605949676
 10
195.1314638927
 20
-106.6376043445
 10
196.4289452507
 20
-105.382054854
 10
197.6605783775
 20
-104.0001975334
 10
198.8202090933
 20
-102.4989204443
 10
199.9020706489
 20
-100.8857002443
 10
200.9007762744
 20
-99.1685742474
 10
201.8113489821
 20
-97.3560994452
 10
202.6292439177
 20
-95.4573022163
 10
203.3503930642
 20
-93.4816438666
 10
203.9712052419
 20
-91.4389675444
 10
204.4885810091
 20
-89.3394488803
 10
204.8999499156
 20
-87.1935480236
 10
205.2032630517
 20
-85.0119556262
 10
205.397000499
 20
-82.8055397569
 10
205.4802085831
 20
-80.5852935145
 10
205.452462621
 20
-78.3622775188
 10
205.3139041736
 20
-76.1475670578
 10
205.0652186944
 20
-73.9521955101
 10
204.707657881
 20
-71.7871000952
 10
204.2429949715
 20
-69.6630671582
 10
203.6735470965
 20
-67.5906779206
 10
203.0021454766
 20
-65.5802588871
 10
202.232142873
 20
-63.6418236381
 10
201.3673763349
 20
-61.7850309199
 10
200.4121448471
 20
-60.0191296971
 10
199.3712093308
 20
-58.3529191053
 10
198.2497628405
 20
-56.7946990913
 10
197.0533858611
 20
-55.3522331601
 10
195.7880388572
 20
-54.0327092594
 10
194.4600324704
 20
-52.8426969385
 10
193.0759753659
 20
-51.7881287223
 10
191.6427667811
 20
-50.8742554075
 10
190.1675443723
 20
-50.105633024
 10
188.6576618626
 20
-49.486087445
 10
187.1206368878
 20
-49.0187087989
 10
185.5641286447
 20
-48.7058216667
 10
183.9958857372
 20
-48.5489906704
 10
182.4237312748
 20
-48.5489906704
 10
180.8554958179
 20
-48.7058216667
 10
179.2989875748
 20
-49.0187087989
 10
177.7619588747
 20
-49.486087445
 10
176.252076365
 20
-50.105633024
 10
174.7768539562
 20
-50.8742554075
 10
173.3436453714
 20
-51.7881287223
 10
171.9595882668
 20
-52.8426969385
 10
170.6315781548
 20
-54.0327092594
 10
169.3662348761
 20
-55.3522331601
 10
168.1698578968
 20
-56.7946990913
 10
167.0484114065
 20
-58.3529191053
 10
166.0074796154
 20
-60.0191296971
 10
165.0522481277
 20
-61.7850309199
 10
164.187474139
 20
-63.6418236381
 10
163.4174715354
 20
-65.5802588871
 10
162.7460736408
 20
-67.5906779206
 10
162.1766257658
 20
-69.6630671582
 10
161.7119628563
 20
-71.7871000952
 10
161.3543983176
 20
-73.9521955101
 10
161.105720289
 20
-76.1475670578
 10
160.9671618416
 20
-78.3622775188
 10
160.9394158795
 20
-80.5852935145
 10
161.0226202383
 20
-82.8055397569
 10
161.2163576855
 20
-85.0119556262
 10
161.5196670964
 20
-87.1935480236
 10
161.9310360029
 20
-89.3394488803
 10
162.4484154954
 20
-91.4389675444
 10
163.069227673
 20
-93.4816438666
 10
163.7903768196
 20
-95.4573022163
 10
164.6082754805
 20
-97.3560994452
 10
165.5188407376
 20
-99.1685742474
 10
166.5175463631
 20
-100.8857002443
 10
167.599411644
 20
-102.4989204443
 10
168.7590460851
 20
-104.0001975334
 10
169.9906717613
 20
-105.382054854
 10
171.2881568446
 20
-106.6376043445
 10
172.6450342312
 20
-107.7605949676
 10
174.0545462444
 20
-108.7454294747
 10
175.5096669867
 20
-109.5872016585
 10
177.0031507685
 20
-110.2817168421
 10
178.5275544598
 20
-110.825517956
 10
180.0752859189
 20
-111.2158948517
 10
181.638633795
 20
-111.4509010649
 10
183.2098122313
 20
-111.5293668544
  0
LWPOLYLINE
  5
C0
330
1F
100
AcDbEntity
  8
0
  6
Continuous
 62
     7
370
    25
100
AcDbPolyline
 90
       84
 70
   128
 43
0.0
 10
183.2098122313
 20
-107.729365859
 10
181.7284803464
 20
-107.6500339395
 10
180.2556346729
 20
-107.4124945289
 10
178.7997167184
 20
-107.0181054956
 10
177.3690487816
 20
-106.4691280907
 10
175.9718414023
 20
-105.7687064594
 10
174.6160927787
 20
-104.9208527392
 10
173.3095701411
 20
-103.9304209834
 10
172.0597538724
 20
-102.8030885345
 10
170.8738002553
 20
-101.5453075951
 10
169.7585116699
 20
-100.1642866021
 10
168.7202658131
 20
-98.6679343468
 10
167.7650194242
 20
-97.0648227221
 10
166.898237504
 20
-95.3641336373
 10
166.1248858645
 20
-93.5756077951
 10
165.4493938758
 20
-91.7094906753
 10
164.8756358399
 20
-89.7764701358
 10
164.4068900122
 20
-87.7876200675
 10
164.0458497777
 20
-85.7543305455
 10
163.794578947
 20
-83.6882493886
 10
163.6545117571
 20
-81.6012104469
 10
163.6264603212
 20
-79.5051680024
 10
163.7105773761
 20
-77.4121282584
 10
163.9063860848
 20
-75.3340798391
 10
164.2127651348
 20
-73.2829252219
 10
164.6279561891
 20
-71.270414438
 10
165.1495787873
 20
-69.3080730698
 10
165.7746526971
 20
-67.4071431121
 10
166.4995904639
 20
-65.578511726
 10
167.3202458396
 20
-63.8326534963
 10
168.2319137826
 20
-62.1795689648
 10
169.2293751612
 20
-60.6287250257
 10
170.30691538
 20
-59.1890083587
 10
171.458361633
 20
-57.8686630315
 10
172.6771164312
 20
-56.6752513832
 10
173.9562023058
 20
-55.6156093216
 10
175.288295336
 20
-54.6958072072
 10
176.6657586767
 20
-53.9211144632
 10
178.0807096138
 20
-53.2959679103
 10
179.5250381901
 20
-52.8239456898
 10
180.990470536
 20
-52.5077560878
 10
182.4686135723
 20
-52.34920587
 10
183.9510034396
 20
-52.34920587
 10
185.4291539266
 20
-52.5077560878
 10
186.8945862725
 20
-52.8239456898
 10
188.3389111235
 20
-53.2959679103
 10
189.7538583352
 20
-53.9211144632
 10
191.1313291266
 20
-54.6958072072
 10
192.4634184315
 20
-55.6156093216
 10
193.7425043061
 20
-56.6752513832
 10
194.9612628295
 20
-57.8686630315
 10
196.1127053573
 20
-59.1890083587
 10
197.1902455761
 20
-60.6287250257
 10
198.1877069547
 20
-62.1795689648
 10
199.0993748977
 20
-63.8326534963
 10
199.9200265481
 20
-65.578511726
 10
200.6449680402
 20
-67.4071431121
 10
201.27004195
 20
-69.3080730698
 10
201.7916645481
 20
-71.270414438
 10
202.2068556025
 20
-73.2829252219
 10
202.5132309272
 20
-75.3340798391
 10
202.7090396359
 20
-77.4121282584
 10
202.7931641414
 20
-79.5051680024
 10
202.7651052549
 20
-81.6012104469
 10
202.6250417902
 20
-83.6882493886
 10
202.3737709596
 20
-85.7543305455
 10
202.012730725
 20
-87.7876200675
 10
201.5439848974
 20
-89.7764701358
 10
200.9702231362
 20
-91.7094906753
 10
200.2947385981
 20
-93.5756077951
 10
199.5213832333
 20
-95.3641336373
 10
198.6546050384
 20
-97.0648227221
 10
197.6993511989
 20
-98.6679343468
 10
196.6611127927
 20
-100.1642866021
 10
195.545820482
 20
-101.5453075951
 10
194.3598668649
 20
-102.8030885345
 10
193.1100543215
 20
-103.9304209834
 10
191.8035279586
 20
-104.9208527392
 10
190.4477756097
 20
-105.7687064594
 10
189.0505682304
 20
-106.4691280907
 10
187.6199077441
 20
-107.0181054956
 10
186.1639823391
 20
-107.4124945289
 10
184.6911366656
 20
-107.6500339395
 10
183.2098122313
 20
-107.729365859
  0
ARC
  5
C1
330
1F
100
AcDbEntity
  8
0
  6
Continuous
 62
     7
370
    25
100
AcDbCircle
 10
116.2098105624
 20
-80.0293663478
 30
0.0
 40
31.5
100
AcDbArc
 50
90.0
 51
270.0
  0
LWPOLYLINE
  5
C2
330
1F
100
AcDbEntity
  8
0
  6
Continuous
 62
     1
370
    25
100
AcDbPolyline
 90
       46
 70
   128
 43
0.0
 10
125.4359474032
 20
-48.5293658412
 10
124.2571370303
 20
-48.5735105312
 10
122.6911004259
 20
-48.7694608009
 10
121.1387379653
 20
-49.1211468315
 10
119.6077842823
 20
-49.626815874
 10
118.1058663269
 20
-50.2839496321
 10
116.6404662572
 20
-51.0892717129
 10
115.2188848564
 20
-52.0387737042
 10
113.8482044543
 20
-53.1277226245
 10
112.5352535955
 20
-54.3506944513
 10
111.2865730747
 20
-55.7015946096
 10
110.1083843595
 20
-57.1736970878
 10
109.006556645
 20
-58.7596630639
 10
107.9865796118
 20
-60.4515949225
 10
107.0535340904
 20
-62.2410623318
 10
106.2120683118
 20
-64.1191488093
 10
105.4663760214
 20
-66.0765001512
 10
104.8201704024
 20
-68.1033644787
 10
104.2766719683
 20
-70.1896425298
 10
103.8385880738
 20
-72.3249421416
 10
103.5081008076
 20
-74.4986248164
 10
103.2868567481
 20
-76.699861368
 10
103.1759585812
 20
-78.9176852404
 10
103.1759585812
 20
-81.1410474552
 10
103.2868567481
 20
-83.3588713276
 10
103.5081008076
 20
-85.5601078792
 10
103.8385880738
 20
-87.733790554
 10
104.2766719683
 20
-89.8690901658
 10
104.8201704024
 20
-91.9553682169
 10
105.4663760214
 20
-93.9822325444
 10
106.2120683118
 20
-95.9395838863
 10
107.0535340904
 20
-97.8176703638
 10
107.9865796118
 20
-99.607137773
 10
109.006556645
 20
-101.2990696317
 10
110.1083843595
 20
-102.8850356078
 10
111.2865730747
 20
-104.357138086
 10
112.5352535955
 20
-105.7080382443
 10
113.8482044543
 20
-106.931010071
 10
115.2188848564
 20
-108.0199589914
 10
116.6404662572
 20
-108.9694609827
 10
118.1058663269
 20
-109.7747830635
 10
119.6077842823
 20
-110.4319168216
 10
121.1387379653
 20
-110.9375858641
 10
122.6911004259
 20
-111.2892718947
 10
124.2571370303
 20
-111.4852221644
 10
125.4359474032
 20
-111.5293668544
  0
INSERT
  5
CE
330
1F
100
AcDbEntity
  8
FORMAT
 62
     7
100
AcDbBlockReference
  2
SW_CENTERMARKSYMBOL_1
 10
116.2098105624
 20
-80.0293663478
 30
0.0
  0
LINE
  5
CF
330
1F
100
AcDbEntity
  8
0
  6
Continuous
 62
     7
370
    25
100
AcDbLine
 10
278.5132594963
 20
-95.1013289096
 30
0.0
 11
278.5132594963
 21
-160.3856201981
 31
0.0
  0
LINE
  5
D0
330
1F
100
AcDbEntity
  8
0
  6
Continuous
 62
     7
370
    25
100
AcDbLine
 10
341.5132570273
 20
-160.3856201981
 30
0.0
 11
341.5132570273
 21
-95.1013289096
 31
0.0
  0
LINE
  5
D1
330
1F
100
AcDbEntity
  8
0
  6
Continuous
 62
     7
370
    25
100
AcDbLine
 10
330.1096132017
 20
13.360582507
 30
0.0
 11
289.2573214418
 21
-57.3976627894
 31
0.0
  0
LINE
  5
D2
330
1F
100
AcDbEntity
  8
0
  6
Continuous
 62
     7
370
    25
100
AcDbLine
 10
343.8169221074
 20
-88.8976635833
 30
0.0
 11
384.669211727
 21
-18.1394256061
 31
0.0
  0
SPLINE
  5
D3
330
1F
100
AcDbEntity
  8
0
  6
Continuous
 62
     7
370
    25
100
AcDbSpline
210
0.0
220
0.0
230
1.0
 70
     8
 71
     3
 72
    21
 73
    17
 74
     0
 42
0.000000001
 43
0.00000001
 40
0.0
 40
0.0
 40
0.0
 40
0.0
 40
0.0429970035117401
 40
0.1169555949223632
 40
0.1910389954002578
 40
0.265311319955495
 40
0.3398392598784568
 40
0.4146839420896298
 40
0.4898957205899934
 40
0.5655092566090587
 40
0.6415367126294822
 40
0.7179598091767271
 40
0.7947228675099042
 40
0.871725787605236
 40
0.948770962547595
 40
1.0
 40
1.0
 40
1.0
 40
1.0
 10
289.2573214417503
 20
-57.39766278944953
 30
0.0
 10
288.9698046223423
 20
-57.90271754746551
 30
0.0
 10
288.1877338286217
 20
-59.27651048343144
 30
0.0
 10
286.9854368046984
 20
-61.5611978381457
 30
0.0
 10
285.6773933118138
 20
-64.26039850382476
 30
0.0
 10
284.4668283411171
 20
-67.0052078771799
 30
0.0
 10
283.3550314480857
 20
-69.7917378819238
 30
0.0
 10
282.3457947042203
 20
-72.61736895906668
 30
0.0
 10
281.4427744848704
 20
-75.4789127588181
 30
0.0
 10
280.6503013193686
 20
-78.3728295955636
 30
0.0
 10
279.9730514212683
 20
-81.29483691785713
 30
0.0
 10
279.4163526327461
 20
-84.23961877105451
 30
0.0
 10
278.9848212336355
 20
-87.2006061819883
 30
0.0
 10
278.6866585945569
 20
-90.1686323806281
 30
0.0
 10
278.5351485903143
 20
-92.80451815478416
 30
0.0
 10
278.5195064986384
 20
-94.44583434733566
 30
0.0
 10
278.5132594963349
 20
-95.10132890956844
 30
0.0
  0
SPLINE
  5
D4
330
1F
100
AcDbEntity
  8
0
  6
Continuous
 62
     7
370
    25
100
AcDbSpline
210
0.0
220
0.0
230
1.0
 70
     8
 71
     3
 72
    20
 73
    16
 74
     0
 42
0.000000001
 43
0.00000001
 40
0.0
 40
0.0
 40
0.0
 40
0.0
 40
0.0153365910278442
 40
0.1099566458275229
 40
0.2010844408367864
 40
0.289803528600088
 40
0.3770700411267899
 40
0.4636878082992335
 40
0.5502891808618398
 40
0.6373086653975306
 40
0.7249292574209378
 40
0.8133067617777698
 40
0.9024439855401813
 40
0.992226841797873
 40
1.0
 40
1.0
 40
1.0
 40
1.0
 10
341.5130015120208
 20
-95.12332228397614
 30
0.0
 10
341.5129785479678
 20
-95.12617775744341
 30
0.0
 10
341.512813905758
 20
-95.1466502525464
 30
0.0
 10
341.5158936305139
 20
-95.06165550584586
 30
0.0
 10
341.538236426028
 20
-94.85969036651717
 30
0.0
 10
341.5897681691299
 20
-94.52752284574161
 30
0.0
 10
341.6793907023602
 20
-94.08820717507034
 30
0.0
 10
341.8147587725675
 20
-93.54770627794188
 30
0.0
 10
342.001897545907
 20
-92.91826588996292
 30
0.0
 10
342.2447421118823
 20
-92.21294653582697
 30
0.0
 10
342.5453237620416
 20
-91.44745137916547
 30
0.0
 10
342.9017127570617
 20
-90.63806350526937
 30
0.0
 10
343.314754283815
 20
-89.8064142603118
 30
0.0
 10
343.6251272368418
 20
-89.21903205164244
 30
0.0
 10
343.8035644791448
 20
-88.92291662600324
 30
0.0
 10
343.8177821665038
 20
-88.89932246768988
 30
0.0
  0
LWPOLYLINE
  5
D5
330
1F
100
AcDbEntity
  8
0
  6
Continuous
 62
     7
370
    25
100
AcDbPolyline
 90
       90
 70
   128
 43
0.0
 10
287.7393942962
 20
-147.5271922301
 10
289.3660530669
 20
-146.6522022171
 10
291.0955751727
 20
-145.8456313364
 10
292.9193450404
 20
-145.1114982664
 10
294.8282755789
 20
-144.4534597639
 10
296.81285543
 20
-143.8747940319
 10
298.8632001699
 20
-143.3783848472
 10
300.9690937975
 20
-142.9667052134
 10
303.1200463574
 20
-142.6418053855
 10
305.3053380622
 20
-142.4053041258
 10
307.5140858053
 20
-142.2583807206
 10
309.7352839908
 20
-142.2017650956
 10
311.9578664369
 20
-142.2357416178
 10
314.1707630104
 20
-142.3601392107
 10
316.3629444078
 20
-142.5743389583
 10
318.5234932783
 20
-142.8772741044
 10
320.6416457119
 20
-143.267434235
 10
322.7068458988
 20
-143.7428770634
 10
324.7088086907
 20
-144.3012326119
 10
326.6375587848
 20
-144.9397197495
 10
328.4834873581
 20
-145.6551575967
 10
330.2373988243
 20
-146.4439818729
 10
331.8905531455
 20
-147.3022632396
 10
333.4347170336
 20
-148.2257246931
 10
334.8621960544
 20
-149.2097661808
 10
336.1658785859
 20
-150.249485415
 10
337.3392702268
 20
-151.3397022989
 10
338.3765245835
 20
-152.4749858239
 10
339.2724763623
 20
-153.6496792559
 10
340.0226579971
 20
-154.8579310234
 10
340.6233355406
 20
-156.0937215201
 10
341.071514591
 20
-157.3508938986
 10
341.3649646579
 20
-158.6231848638
 10
341.5022198213
 20
-159.9042569877
 10
341.4826004634
 20
-161.1877264614
 10
341.3062014144
 20
-162.4672003521
 10
340.9739011727
 20
-163.7363032146
 10
340.4873592706
 20
-164.988713588
 10
339.8489952005
 20
-166.2181913677
 10
339.0619917081
 20
-167.4186124007
 10
338.1302684502
 20
-168.5839943373
 10
337.058468495
 20
-169.7085333176
 10
335.8519293455
 20
-170.7866252607
 10
334.5166646658
 20
-171.8129007455
 10
333.0593226271
 20
-172.7822444943
 10
331.487168128
 20
-173.6898299681
 10
329.8080335674
 20
-174.5311356193
 10
328.0302796619
 20
-175.3019675113
 10
326.1627672923
 20
-175.9984877365
 10
324.2147975768
 20
-176.6172246804
 10
322.1960781199
 20
-177.1550970683
 10
320.1166625913
 20
-177.6094245138
 10
317.9869138474
 20
-177.9779442473
 10
315.8174403817
 20
-178.2588189088
 10
313.6190515437
 20
-178.450651755
 10
311.4026976116
 20
-178.5524847585
 10
309.1794223767
 20
-178.5638107727
 10
306.9602999235
 20
-178.4845750535
 10
304.7563885313
 20
-178.3151699357
 10
302.5786661371
 20
-178.0564416771
 10
300.4379822616
 20
-177.7096779123
 10
298.3450020332
 20
-177.2766072727
 10
296.3101528457
 20
-176.7593853202
 10
294.343571016
 20
-176.1605911258
 10
292.4550553572
 20
-175.48320655
 10
290.6540136715
 20
-174.7306066441
 10
288.9494191217
 20
-173.9065405461
 10
287.3497636392
 20
-173.0151137081
 10
285.8630156127
 20
-172.0607680323
 10
284.4965838324
 20
-171.0482564948
 10
283.2572748497
 20
-169.982624612
 10
282.1512628487
 20
-168.869180883
 10
281.1840578713
 20
-167.7134723632
 10
280.3604774998
 20
-166.5212576723
 10
279.6846271007
 20
-165.2984743001
 10
279.1598711778
 20
-164.0512159858
 10
278.7888261286
 20
-162.7856966024
 10
278.5733398289
 20
-161.5082186024
 10
278.5144843891
 20
-160.2251490672
 10
278.6125561543
 20
-158.9428786486
 10
278.8670625332
 20
-157.6677957174
 10
279.2767391204
 20
-156.4062536689
 10
279.8395431107
 20
-155.1645351868
 10
280.5526704217
 20
-153.9488286726
 10
281.4125695228
 20
-152.7651898487
 10
282.414956582
 20
-151.619516287
 10
283.55483621
 20
-150.5175141439
 10
284.8265297774
 20
-149.4646742096
 10
286.2237029092
 20
-148.4662423502
 10
287.7393942962
 20
-147.5271922301
  0
LWPOLYLINE
  5
D6
330
1F
100
AcDbEntity
  8
0
  6
Continuous
 62
     7
370
    25
100
AcDbPolyline
 90
       84
 70
   128
 43
0.0
 10
290.4264007685
 20
-149.0783680489
 10
289.0011673845
 20
-149.965904991
 10
287.6962886069
 20
-150.9131245767
 10
286.5192403976
 20
-151.9146024505
 10
285.4767631244
 20
-152.964601377
 10
284.5748291273
 20
-154.0571066921
 10
283.818603371
 20
-155.1858611836
 10
283.2124190783
 20
-156.3444004466
 10
282.7597467788
 20
-157.5260859588
 10
282.4631817963
 20
-158.7241518408
 10
282.3244198831
 20
-159.9317341295
 10
282.3442565607
 20
-161.1419167786
 10
282.5225798768
 20
-162.3477662541
 10
282.8583657945
 20
-163.5423775344
 10
283.3496933396
 20
-164.7189071858
 10
283.9937485513
 20
-165.8706151804
 10
284.7868396292
 20
-166.9909070954
 10
285.7244262381
 20
-168.073363196
 10
286.8011359719
 20
-169.1117859566
 10
288.0108043602
 20
-170.1002246765
 10
289.3464992341
 20
-171.0330199604
 10
290.8005723813
 20
-171.9048274544
 10
292.3646935018
 20
-172.7106541768
 10
294.0299046205
 20
-173.4458838461
 10
295.7866659381
 20
-174.1063063925
 10
297.6249158824
 20
-174.6881374171
 10
299.5341272902
 20
-175.1880445427
 10
301.5033597616
 20
-175.6031654722
 10
303.5213376974
 20
-175.9311211038
 10
305.5765003488
 20
-176.1700337796
 10
307.6570755743
 20
-176.3185348889
 10
309.751148328
 20
-176.375773992
 10
311.846719929
 20
-176.3414226226
 10
313.9317916964
 20
-176.2156769481
 10
315.9944176328
 20
-175.9992592908
 10
318.0227847667
 20
-175.6934082434
 10
320.0052743975
 20
-175.2998752477
 10
321.9305292666
 20
-174.8209147095
 10
323.787523034
 20
-174.259269743
 10
325.5656208644
 20
-173.6181584844
 10
327.2546340865
 20
-172.9012516617
 10
328.8448918096
 20
-172.1126571031
 10
330.3272830703
 20
-171.2568908437
 10
331.6933169251
 20
-170.3388546012
 10
332.9351705238
 20
-169.3638080225
 10
334.0457281282
 20
-168.3373339941
 10
335.018631162
 20
-167.2653143108
 10
335.8483050458
 20
-166.1538883322
 10
336.5299980518
 20
-165.009421429
 10
337.059805011
 20
-163.838470007
 10
337.4346920089
 20
-162.6477413993
 10
337.6525135075
 20
-161.4440550892
 10
337.7120182721
 20
-160.2343073541
 10
337.6128664939
 20
-159.0254248852
 10
337.3556271553
 20
-157.8243343734
 10
336.9417734203
 20
-156.6379142284
 10
336.3736760492
 20
-155.4729603628
 10
335.6545875934
 20
-154.3361466549
 10
334.7886292242
 20
-153.2339823694
 10
333.7807591235
 20
-152.1727832648
 10
332.6367497629
 20
-151.158626543
 10
331.3631566239
 20
-150.1973206262
 10
329.9672725517
 20
-149.2943727231
 10
328.4570940466
 20
-148.4549541628
 10
326.8412701441
 20
-147.6838739249
 10
325.1290585392
 20
-146.9855472287
 10
323.3302626549
 20
-146.3639759299
 10
321.4551905237
 20
-145.8227187015
 10
319.5145777381
 20
-145.3648769677
 10
317.5195448101
 20
-144.9930718081
 10
315.4815148525
 20
-144.7094344537
 10
313.4121632011
 20
-144.5155893695
 10
311.3233443155
 20
-144.4126455104
 10
309.2270193396
 20
-144.4011940401
 10
307.1351988081
 20
-144.4812995876
 10
305.0598629627
 20
-144.6525029078
 10
303.0129018245
 20
-144.9138250639
 10
301.0060355102
 20
-145.2637678073
 10
299.0507635239
 20
-145.700327644
 10
297.1582837564
 20
-146.2210030576
 10
295.3394351919
 20
-146.8228123776
 10
293.6046366628
 20
-147.5023078453
 10
291.9638264292
 20
-148.2555983294
 10
290.4264007685
 20
-149.0783680489
  0
LWPOLYLINE
  5
D7
330
1F
100
AcDbEntity
  8
0
  6
Continuous
 62
     7
370
    25
100
AcDbPolyline
 90
       90
 70
   128
 43
0.0
 10
335.1155498158
 20
10.4690071788
 10
336.2820191661
 20
9.7954041782
 10
337.5536475376
 20
9.0611073723
 10
338.9240970979
 20
8.2697522133
 10
340.3865387406
 20
7.4253003349
 10
341.9336876463
 20
6.5319520975
 10
343.5578414783
 20
5.5941671195
 10
345.2508975052
 20
4.6165935538
 10
347.0044289912
 20
3.6041274001
 10
348.8096944168
 20
2.5617915933
 10
350.6577112347
 20
1.4947968385
 10
352.5392571877
 20
0.4084435134
 10
354.4449677729
 20
-0.6918494371
 10
356.3653507297
 20
-1.8005954488
 10
358.2908360894
 20
-2.9122692361
 10
360.2118275413
 20
-4.0213425311
 10
362.1187584095
 20
-5.1222799019
 10
364.0021291893
 20
-6.2096090922
 10
365.8525529874
 20
-7.2779107525
 10
367.6608157783
 20
-8.3218593143
 10
369.4179093317
 20
-9.3362359139
 10
371.1150740177
 20
-10.3160200252
 10
372.7438621921
 20
-11.2563104655
 10
374.2961525193
 20
-12.1524249152
 10
375.7642136869
 20
-12.9998941174
 10
377.1407286068
 20
-13.794518433
 10
378.4188485808
 20
-14.5323078565
 10
379.5922003798
 20
-15.2096077712
 10
380.6549404089
 20
-15.8230389654
 10
381.6017687022
 20
-16.3695422095
 10
382.4279753492
 20
-16.8463989751
 10
383.1294437882
 20
-17.2512272471
 10
383.7026738552
 20
-17.5820252453
 10
384.1448101011
 20
-17.837126935
 10
384.4536556216
 20
-18.0152708428
 10
384.6276667882
 20
-18.1155605081
 10
384.6659756393
 20
-18.1375199929
 10
384.5683990996
 20
-18.0810018616
 10
384.3354152723
 20
-17.9463255802
 10
383.9681897812
 20
-17.7341406298
 10
383.4685481117
 20
-17.4455017877
 10
382.8389848304
 20
-17.0818683637
 10
382.0826306579
 20
-16.6450304306
 10
381.2032577372
 20
-16.1371666166
 10
380.2052388037
 20
-15.5608266114
 10
379.0935577223
 20
-14.9188520746
 10
377.8737515352
 20
-14.2144587631
 10
376.5518893887
 20
-13.4511635238
 10
375.1345593619
 20
-12.6327553934
 10
373.6288263203
 20
-11.7633077656
 10
372.0421884518
 20
-10.8471715422
 10
370.3825509246
 20
-9.8888930043
 10
368.6581824235
 20
-8.8932465093
 10
366.877671686
 20
-7.8652063542
 10
365.049894575
 20
-6.8098821346
 10
363.1839508584
 20
-5.73254308
 10
361.2891405019
 20
-4.6385435284
 10
359.3749017654
 20
-3.5333358542
 10
357.4507703732
 20
-2.4224256021
 10
355.5263320993
 20
-1.3113562784
 10
353.6111773274
 20
-0.2056587824
 10
351.7148463916
 20
0.8891497339
 10
349.8467854545
 20
1.9676339241
 10
348.016301067
 20
3.0244117289
 10
346.2325111071
 20
4.0542222444
 10
344.5043070782
 20
5.0519322776
 10
342.8402946751
 20
6.0125584936
 10
341.2487656319
 20
6.9313323356
 10
339.7376488244
 20
7.803667417
 10
338.3144702638
 20
8.6252312869
 10
336.986323627
 20
9.3919107291
 10
335.7598243228
 20
10.0999052013
 10
334.6410829858
 20
10.7456691301
 10
333.6356732073
 20
11.325997459
 10
332.7486012427
 20
11.8379914237
 10
331.9842905354
 20
12.2791131098
 10
331.3465441801
 20
12.6471554121
 10
330.8385442637
 20
12.9402849933
 10
330.4628195972
 20
13.1570396209
 10
330.2212417641
 20
13.2963547775
 10
330.1150119495
 20
13.3575165073
 10
330.1446648916
 20
13.34022301
 10
330.3100478081
 20
13.2445633431
 10
330.6103401525
 20
13.0710303459
 10
331.0440430775
 20
12.8204597983
 10
331.6089991912
 20
12.4941193905
 10
332.3023899233
 20
12.0936311528
 10
333.1207631834
 20
11.6209950255
 10
334.0600425809
 20
11.078547031
 10
335.1155498158
 20
10.4690071788
  0
LWPOLYLINE
  5
D8
330
1F
100
AcDbEntity
  8
0
  6
Continuous
 62
     7
370
    25
100
AcDbPolyline
 90
       84
 70
   128
 43
0.0
 10
337.8025562882
 20
8.91783136
 10
336.8111926055
 20
9.4903360888
 10
335.9376991701
 20
9.9947885623
 10
335.1870848715
 20
10.4283021738
 10
334.5636355175
 20
10.788395591
 10
334.07093359
 20
11.073011769
 10
333.7117976597
 20
11.2805194783
 10
333.4882876537
 20
11.4097193921
 10
333.4016785142
 20
11.4598866766
 10
333.4524681008
 20
11.4307238485
 10
333.6403692882
 20
11.3224018426
 10
333.9642994291
 20
11.1355326443
 10
334.4224093306
 20
10.8712042723
 10
335.0120707416
 20
10.5309058819
 10
335.7299073044
 20
10.1166133206
 10
336.5718064085
 20
9.6306910345
 10
337.5329501422
 20
9.0759076634
 10
338.6078261589
 20
8.4554571495
 10
339.7902849698
 20
7.772886118
 10
341.0735496581
 20
7.032100442
 10
342.4502665866
 20
6.237360305
 10
343.9125570521
 20
5.3932077939
 10
345.4520393884
 20
4.5044723958
 10
347.059899183
 20
3.5762426261
 10
348.726927226
 20
2.6138441229
 10
350.4435716585
 20
1.62279129
 10
352.1999994234
 20
0.6087639886
 10
353.9861538873
 20
-0.4224439827
 10
355.7917999516
 20
-1.4649205091
 10
357.606599126
 20
-2.5126876316
 10
359.4201529927
 20
-3.5597509724
 10
361.2220769634
 20
-4.6001179857
 10
363.0020463773
 20
-5.6278093622
 10
364.7498669655
 20
-6.6369544658
 10
366.4555262171
 20
-7.6217814472
 10
368.1092566001
 20
-8.5766294112
 10
369.7015869274
 20
-9.4960358697
 10
371.2233910891
 20
-10.3747375019
 10
372.6659578585
 20
-11.2077043777
 10
374.0210225021
 20
-11.9901551661
 10
375.2808194629
 20
-12.7176088506
 10
376.4381363616
 20
-13.3859159086
 10
377.4863442892
 20
-13.9912362618
 10
378.419442588
 20
-14.5300864271
 10
379.2320799254
 20
-14.9994125231
 10
379.9196017088
 20
-15.3965020624
 10
380.4780751104
 20
-15.719095742
 10
380.9043035553
 20
-15.9653288925
 10
381.1958346235
 20
-16.1338029642
 10
381.3510048317
 20
-16.2235505535
 10
381.3689277791
 20
-16.2340528964
 10
381.2494954642
 20
-16.1652588851
 10
380.9933980417
 20
-16.0175660633
 10
380.6020974805
 20
-15.7917993371
 10
380.0778367832
 20
-15.489271057
 10
379.423616937
 20
-15.1117190467
 10
378.6431903285
 20
-14.6612723879
 10
377.7410238653
 20
-14.1405457217
 10
376.7222818532
 20
-13.5525137794
 10
375.5928062407
 20
-12.9005364831
 10
374.3590609713
 20
-12.1883572389
 10
373.0281165081
 20
-11.420039255
 10
371.6075989201
 20
-10.5999969863
 10
370.1056324651
 20
-9.7329386518
 10
368.5308332511
 20
-8.8238017465
 10
366.8922179463
 20
-7.8778098388
 10
365.1991711391
 20
-6.900386811
 10
363.4613884157
 20
-5.8971239958
 10
361.6888256518
 20
-4.8737752388
 10
359.8916418845
 20
-3.8361934968
 10
358.0801183105
 20
-2.790320573
 10
356.2646447865
 20
-1.7421489108
 10
354.455607218
 20
-0.697699157
 10
352.6633809737
 20
0.3370809729
 10
350.8982209087
 20
1.3562341876
 10
349.1702396324
 20
2.3539217538
 10
347.4893442884
 20
3.3244539151
 10
345.8651496266
 20
4.2622609953
 10
344.3069648321
 20
5.1619496713
 10
342.8237171342
 20
6.0183957508
 10
341.4239017572
 20
6.8266939833
 10
340.1155318705
 20
7.5821869594
 10
338.9061069791
 20
8.2805685346
 10
337.8025562882
 20
8.91783136
  0
LWPOLYLINE
  5
D9
330
1F
100
AcDbEntity
  8
0
  6
Continuous
 62
     1
370
    25
100
AcDbPolyline
 90
       13
 70
   128
 43
0.0
 10
332.2871222274
 20
-82.2429009415
 10
333.8028136144
 20
-83.1819510616
 10
335.1999867463
 20
-84.1803829211
 10
336.4716803136
 20
-85.2332228554
 10
337.6115599416
 20
-86.3352249985
 10
338.6139470008
 20
-87.4808985602
 10
339.4738461019
 20
-88.664537384
 10
340.1869734129
 20
-89.8802438982
 10
340.7497774032
 20
-91.1219623804
 10
341.1594539904
 20
-92.3835044289
 10
341.4139603693
 20
-93.65858736
 10
341.5120321345
 20
-94.9408577786
 10
341.5132570273
 20
-95.1013289096
  0
LWPOLYLINE
  5
DA
330
1F
100
AcDbEntity
  8
0
  6
Continuous
 62
     1
370
    25
100
AcDbPolyline
 90
       35
 70
   128
 43
0.0
 10
278.5132594963
 20
-95.1013289096
 10
278.5242967023
 20
-94.6199656992
 10
278.6615518657
 20
-93.3388935753
 10
278.9550019327
 20
-92.0666026101
 10
279.403180983
 20
-90.8094302316
 10
280.0038585265
 20
-89.5736397348
 10
280.7540401614
 20
-88.3653879674
 10
281.6499919401
 20
-87.1906945354
 10
282.6872462968
 20
-86.0554110103
 10
283.8606379377
 20
-84.9651941264
 10
285.1643204692
 20
-83.9254748923
 10
286.5917994901
 20
-82.9414334046
 10
288.1359633781
 20
-82.017971951
 10
289.7891176993
 20
-81.1596905843
 10
291.5430291656
 20
-80.3708663082
 10
293.3889577388
 20
-79.655428461
 10
295.3177078329
 20
-79.0169413234
 10
297.3196706248
 20
-78.4585857749
 10
299.3848708117
 20
-77.9831429465
 10
301.5030232453
 20
-77.5929828159
 10
303.6635721158
 20
-77.2900476698
 10
305.8557535133
 20
-77.0758479222
 10
308.0686500867
 20
-76.9514503293
 10
310.2912325328
 20
-76.9174738071
 10
312.5124307183
 20
-76.9740894321
 10
314.7211784614
 20
-77.1210128373
 10
316.9064701662
 20
-77.3575140969
 10
319.0574227261
 20
-77.6824139249
 10
321.1633163538
 20
-78.0940935587
 10
323.2136610936
 20
-78.5905027434
 10
325.1982409447
 20
-79.1691684754
 10
327.1071714832
 20
-79.8272069779
 10
328.9309413509
 20
-80.5613400479
 10
330.6604634567
 20
-81.3679109285
 10
332.2871222274
 20
-82.2429009415
  0
LWPOLYLINE
  5
DB
330
1F
100
AcDbEntity
  8
0
  6
Continuous
 62
     1
370
    25
100
AcDbPolyline
 90
       15
 70
   128
 43
0.0
 10
332.2871222274
 20
-82.2429009415
 10
333.8190638587
 20
-83.1272646581
 10
335.264908698
 20
-83.9619080243
 10
336.6174517747
 20
-84.7426794131
 10
337.8699570015
 20
-85.4656842634
 10
339.016182035
 20
-86.1273207219
 10
340.0504176237
 20
-86.7242962744
 10
340.9675119739
 20
-87.2536296428
 10
341.7628954452
 20
-87.7126878526
 10
342.4326035997
 20
-88.0991828076
 10
342.973302885
 20
-88.4111906762
 10
343.3822985372
 20
-88.6471625336
 10
343.6575517023
 20
-88.8059099091
 10
343.7976939248
 20
-88.8866511689
 10
343.8169221074
 20
-88.8976635833
  0
LWPOLYLINE
  5
DC
330
1F
100
AcDbEntity
  8
0
  6
Continuous
 62
     1
370
    25
100
AcDbPolyline
 90
       32
 70
   128
 43
0.0
 10
289.2573214418
 20
-57.3976627894
 10
289.3210158666
 20
-57.4346016956
 10
289.5202301077
 20
-57.5497838112
 10
289.8540406595
 20
-57.7426806782
 10
290.3207862815
 20
-58.0123175854
 10
290.9181389161
 20
-58.3573611307
 10
291.643124638
 20
-58.7760949603
 10
292.4921310837
 20
-59.2664185254
 10
293.4609284218
 20
-59.8259018978
 10
294.5446905087
 20
-60.4517522654
 10
295.7380172797
 20
-61.1408511981
 10
297.0349647119
 20
-61.8897723301
 10
298.429070508
 20
-62.6947787021
 10
299.9133903164
 20
-63.551856603
 10
301.480528682
 20
-64.4567463709
 10
303.1226765842
 20
-65.4049313679
 10
304.8316562173
 20
-66.3916881714
 10
306.5989512836
 20
-67.4121055878
 10
308.4157570431
 20
-68.4610937772
 10
310.2730250943
 20
-69.5334329245
 10
312.1614989355
 20
-70.6237785621
 10
314.0717732341
 20
-71.7266927483
 10
315.9943280707
 20
-72.836691216
 10
317.9195882081
 20
-73.9482395692
 10
319.8379612871
 20
-75.0557996694
 10
321.7398878756
 20
-76.153852449
 10
323.6158961278
 20
-77.2369249051
 10
325.4566380045
 20
-78.2996277403
 10
327.2529429443
 20
-79.3366635356
 10
328.9958633027
 20
-80.3428651511
 10
330.676713701
 20
-81.313224525
 10
332.2871222274
 20
-82.2429009415
  0
ENDSEC
  0
SECTION
  2
OBJECTS
  0
DICTIONARY
  5
C
330
0
100
AcDbDictionary
281
     1
  3
ACAD_GROUP
350
D
  3
ACAD_LAYOUT
350
1A
  3
ACAD_MLINESTYLE
350
17
  3
ACAD_PLOTSETTINGS
350
19
  3
ACAD_PLOTSTYLENAME
350
E
  3
ACAD_SCALELIST
350
47
  0
DICTIONARY
  5
D
102
{ACAD_REACTORS
330
C
102
}
330
C
100
AcDbDictionary
281
     1
  0
DICTIONARY
  5
1A
102
{ACAD_REACTORS
330
C
102
}
330
C
100
AcDbDictionary
281
     1
  3
Layout1
350
1E
  3
Layout2
350
26
  3
Model
350
22
  0
DICTIONARY
  5
17
102
{ACAD_REACTORS
330
C
102
}
330
C
100
AcDbDictionary
281
     1
  3
Standard
350
18
  0
DICTIONARY
  5
19
102
{ACAD_REACTORS
330
C
102
}
330
C
100
AcDbDictionary
281
     1
  0
ACDBDICTIONARYWDFLT
  5
E
102
{ACAD_REACTORS
330
C
102
}
330
C
100
AcDbDictionary
281
     1
  3
Normal
350
F
100
AcDbDictionaryWithDefault
340
F
  0
DICTIONARY
  5
47
102
{ACAD_REACTORS
330
C
102
}
330
C
100
AcDbDictionary
281
     1
  3
A0
350
48
  3
A1
350
49
  3
A2
350
4A
  3
A3
350
4B
  3
A4
350
4C
  3
A5
350
4D
  3
A6
350
4E
  3
A7
350
4F
  3
A8
350
50
  3
A9
350
51
  3
B0
350
52
  3
B1
350
53
  3
B2
350
54
  3
B3
350
55
  3
B4
350
56
  3
B5
350
57
  3
B6
350
58
  3
B7
350
59
  3
B8
350
5A
  3
B9
350
5B
  3
C0
350
5C
  3
C1
350
5D
  3
C2
350
5E
  3
C3
350
5F
  3
C4
350
60
  3
C5
350
61
  3
C6
350
62
  3
C7
350
63
  3
C8
350
64
  3
C9
350
65
  3
D0
350
66
  3
D1
350
67
  3
D2
350
68
  0
LAYOUT
  5
1E
102
{ACAD_REACTORS
330
1A
102
}
330
1A
100
AcDbPlotSettings
  1

  2
none_device
  4

  6

 40
0.0
 41
0.0
 42
0.0
 43
0.0
 44
0.0
 45
0.0
 46
0.0
 47
0.0
 48
0.0
 49
0.0
140
0.0
141
0.0
142
1.0
143
1.0
 70
   688
 72
     1
 73
     0
 74
     5
  7

 75
    16
147
1.0
148
0.0
149
0.0
100
AcDbLayout
  1
Layout1
 70
     1
 71
     1
 10
0.0
 20
0.0
 11
420.0
 21
297.0
 12
0.0
 22
0.0
 32
0.0
 14
1.0000000000E+20
 24
1.0000000000E+20
 34
1.0000000000E+20
 15
-1.0000000000E+20
 25
-1.0000000000E+20
 35
-1.0000000000E+20
146
0.0
 13
0.0
 23
0.0
 33
0.0
 16
1.0
 26
0.0
 36
0.0
 17
0.0
 27
1.0
 37
0.0
 76
     0
330
1B
  0
LAYOUT
  5
26
102
{ACAD_REACTORS
330
1A
102
}
330
1A
100
AcDbPlotSettings
  1

  2
none_device
  4

  6

 40
0.0
 41
0.0
 42
0.0
 43
0.0
 44
0.0
 45
0.0
 46
0.0
 47
0.0
 48
0.0
 49
0.0
140
0.0
141
0.0
142
1.0
143
1.0
 70
   688
 72
     1
 73
     0
 74
     5
  7

 75
    16
147
1.0
148
0.0
149
0.0
100
AcDbLayout
  1
Layout2
 70
     1
 71
     2
 10
0.0
 20
0.0
 11
0.0
 21
0.0
 12
0.0
 22
0.0
 32
0.0
 14
0.0
 24
0.0
 34
0.0
 15
0.0
 25
0.0
 35
0.0
146
0.0
 13
0.0
 23
0.0
 33
0.0
 16
1.0
 26
0.0
 36
0.0
 17
0.0
 27
1.0
 37
0.0
 76
     0
330
23
  0
LAYOUT
  5
22
102
{ACAD_REACTORS
330
1A
102
}
330
1A
100
AcDbPlotSettings
  1

  2
none_device
  4
Letter_(8.50_x_11.00_Inches)
  6

 40
6.35
 41
6.35
 42
6.35000508
 43
6.35000508
 44
215.9
 45
279.4
 46
0.0
 47
0.0
 48
0.0
 49
0.0
140
0.0
141
0.0
142
1.0
143
1.0
 70
  1712
 72
     1
 73
     0
 74
     0
  7

 75
     0
147
1.0
148
0.0
149
0.0
100
AcDbLayout
  1
Model
 70
     1
 71
     0
 10
0.0
 20
0.0
 11
279.4
 21
215.9
 12
0.0
 22
0.0
 32
0.0
 14
0.0
 24
0.0
 34
0.0
 15
279.4
 25
215.9
 35
0.0
146
0.0
 13
0.0
 23
0.0
 33
0.0
 16
1.0
 26
0.0
 36
0.0
 17
0.0
 27
1.0
 37
0.0
 76
     0
330
1F
331
29
  0
MLINESTYLE
  5
18
102
{ACAD_REACTORS
330
17
102
}
330
17
100
AcDbMlineStyle
  2
Standard
 70
     0
  3

 62
   256
 51
90.0
 52
90.0
 71
     2
 49
0.5
 62
   256
  6
BYLAYER
 49
-0.5
 62
   256
  6
BYLAYER
  0
ACDBPLACEHOLDER
  5
F
102
{ACAD_REACTORS
330
E
102
}
330
E
  0
SCALE
  5
48
102
{ACAD_REACTORS
330
47
102
}
330
47
100
AcDbScale
 70
     0
300
1:1
140
1.0
141
1.0
290
     1
  0
SCALE
  5
49
102
{ACAD_REACTORS
330
47
102
}
330
47
100
AcDbScale
 70
     0
300
1:2
140
1.0
141
2.0
290
     0
  0
SCALE
  5
4A
102
{ACAD_REACTORS
330
47
102
}
330
47
100
AcDbScale
 70
     0
300
1:4
140
1.0
141
4.0
290
     0
  0
SCALE
  5
4B
102
{ACAD_REACTORS
330
47
102
}
330
47
100
AcDbScale
 70
     0
300
1:5
140
1.0
141
5.0
290
     0
  0
SCALE
  5
4C
102
{ACAD_REACTORS
330
47
102
}
330
47
100
AcDbScale
 70
     0
300
1:8
140
1.0
141
8.0
290
     0
  0
SCALE
  5
4D
102
{ACAD_REACTORS
330
47
102
}
330
47
100
AcDbScale
 70
     0
300
1:10
140
1.0
141
10.0
290
     0
  0
SCALE
  5
4E
102
{ACAD_REACTORS
330
47
102
}
330
47
100
AcDbScale
 70
     0
300
1:16
140
1.0
141
16.0
290
     0
  0
SCALE
  5
4F
102
{ACAD_REACTORS
330
47
102
}
330
47
100
AcDbScale
 70
     0
300
1:20
140
1.0
141
20.0
290
     0
  0
SCALE
  5
50
102
{ACAD_REACTORS
330
47
102
}
330
47
100
AcDbScale
 70
     0
300
1:30
140
1.0
141
30.0
290
     0
  0
SCALE
  5
51
102
{ACAD_REACTORS
330
47
102
}
330
47
100
AcDbScale
 70
     0
300
1:40
140
1.0
141
40.0
290
     0
  0
SCALE
  5
52
102
{ACAD_REACTORS
330
47
102
}
330
47
100
AcDbScale
 70
     0
300
1:50
140
1.0
141
50.0
290
     0
  0
SCALE
  5
53
102
{ACAD_REACTORS
330
47
102
}
330
47
100
AcDbScale
 70
     0
300
1:100
140
1.0
141
100.0
290
     0
  0
SCALE
  5
54
102
{ACAD_REACTORS
330
47
102
}
330
47
100
AcDbScale
 70
     0
300
2:1
140
2.0
141
1.0
290
     0
  0
SCALE
  5
55
102
{ACAD_REACTORS
330
47
102
}
330
47
100
AcDbScale
 70
     0
300
4:1
140
4.0
141
1.0
290
     0
  0
SCALE
  5
56
102
{ACAD_REACTORS
330
47
102
}
330
47
100
AcDbScale
 70
     0
300
8:1
140
8.0
141
1.0
290
     0
  0
SCALE
  5
57
102
{ACAD_REACTORS
330
47
102
}
330
47
100
AcDbScale
 70
     0
300
10:1
140
10.0
141
1.0
290
     0
  0
SCALE
  5
58
102
{ACAD_REACTORS
330
47
102
}
330
47
100
AcDbScale
 70
     0
300
100:1
140
100.0
141
1.0
290
     0
  0
SCALE
  5
59
102
{ACAD_REACTORS
330
47
102
}
330
47
100
AcDbScale
 70
     0
300
1/128" = 1'-0"
140
0.0078125
141
12.0
290
     0
  0
SCALE
  5
5A
102
{ACAD_REACTORS
330
47
102
}
330
47
100
AcDbScale
 70
     0
300
1/64" = 1'-0"
140
0.015625
141
12.0
290
     0
  0
SCALE
  5
5B
102
{ACAD_REACTORS
330
47
102
}
330
47
100
AcDbScale
 70
     0
300
1/32" = 1'-0"
140
0.03125
141
12.0
290
     0
  0
SCALE
  5
5C
102
{ACAD_REACTORS
330
47
102
}
330
47
100
AcDbScale
 70
     0
300
1/16" = 1'-0"
140
0.0625
141
12.0
290
     0
  0
SCALE
  5
5D
102
{ACAD_REACTORS
330
47
102
}
330
47
100
AcDbScale
 70
     0
300
3/32" = 1'-0"
140
0.09375
141
12.0
290
     0
  0
SCALE
  5
5E
102
{ACAD_REACTORS
330
47
102
}
330
47
100
AcDbScale
 70
     0
300
1/8" = 1'-0"
140
0.125
141
12.0
290
     0
  0
SCALE
  5
5F
102
{ACAD_REACTORS
330
47
102
}
330
47
100
AcDbScale
 70
     0
300
3/16" = 1'-0"
140
0.1875
141
12.0
290
     0
  0
SCALE
  5
60
102
{ACAD_REACTORS
330
47
102
}
330
47
100
AcDbScale
 70
     0
300
1/4" = 1'-0"
140
0.25
141
12.0
290
     0
  0
SCALE
  5
61
102
{ACAD_REACTORS
330
47
102
}
330
47
100
AcDbScale
 70
     0
300
3/8" = 1'-0"
140
0.375
141
12.0
290
     0
  0
SCALE
  5
62
102
{ACAD_REACTORS
330
47
102
}
330
47
100
AcDbScale
 70
     0
300
1/2" = 1'-0"
140
0.5
141
12.0
290
     0
  0
SCALE
  5
63
102
{ACAD_REACTORS
330
47
102
}
330
47
100
AcDbScale
 70
     0
300
3/4" = 1'-0"
140
0.75
141
12.0
290
     0
  0
SCALE
  5
64
102
{ACAD_REACTORS
330
47
102
}
330
47
100
AcDbScale
 70
     0
300
1" = 1'-0"
140
1.0
141
12.0
290
     0
  0
SCALE
  5
65
102
{ACAD_REACTORS
330
47
102
}
330
47
100
AcDbScale
 70
     0
300
1-1/2" = 1'-0"
140
1.5
141
12.0
290
     0
  0
SCALE
  5
66
102
{ACAD_REACTORS
330
47
102
}
330
47
100
AcDbScale
 70
     0
300
3" = 1'-0"
140
3.0
141
12.0
290
     0
  0
SCALE
  5
67
102
{ACAD_REACTORS
330
47
102
}
330
47
100
AcDbScale
 70
     0
300
6" = 1'-0"
140
6.0
141
12.0
290
     0
  0
SCALE
  5
68
102
{ACAD_REACTORS
330
47
102
}
330
47
100
AcDbScale
 70
     0
300
1'-0" = 1'-0"
140
12.0
141
12.0
290
     0
  0
ENDSEC
  0
EOF
